  0
SECTION
  2
HEADER
  9
$ACADVER
  1
AC1009
  9
$INSBASE
 10
0.0
 20
0.0
 30
0.0
  9
$EXTMIN
 10
-170.0164782349211
 20
-265.80211091866681
 30
-0.0015258207003583
  9
$EXTMAX
 10
370.0164807494923
 20
537.08808227102497
 30
0.0000000349246037
  9
$LIMMIN
 10
0.0
 20
0.0
  9
$LIMMAX
 10
0.0
 20
0.0
  9
$ORTHOMODE
 70
     0
  9
$REGENMODE
 70
     1
  9
$FILLMODE
 70
     1
  9
$QTEXTMODE
 70
     0
  9
$MIRRTEXT
 70
     1
  9
$DRAGMODE
 70
     2
  9
$LTSCALE
 40
15.24
  9
$OSMODE
 70
   231
  9
$ATTMODE
 70
     1
  9
$TEXTSIZE
 40
0.0
  9
$TRACEWID
 40
1.0
  9
$TEXTSTYLE
  7
STANDARD
  9
$CLAYER
  8
DATA
  9
$CELTYPE
  6
BYLAYER
  9
$CECOLOR
 62
   256
  9
$DIMSCALE
 40
1.0
  9
$DIMASZ
 40
0.18
  9
$DIMEXO
 40
0.0625
  9
$DIMDLI
 40
0.38
  9
$DIMRND
 40
0.0
  9
$DIMDLE
 40
0.0
  9
$DIMEXE
 40
0.18
  9
$DIMTP
 40
0.0
  9
$DIMTM
 40
0.0
  9
$DIMTXT
 40
0.18
  9
$DIMCEN
 40
0.09
  9
$DIMTSZ
 40
0.0
  9
$DIMTOL
 70
     0
  9
$DIMLIM
 70
     0
  9
$DIMTIH
 70
     1
  9
$DIMTOH
 70
     1
  9
$DIMSE1
 70
     0
  9
$DIMSE2
 70
     0
  9
$DIMTAD
 70
     0
  9
$DIMZIN
 70
     0
  9
$DIMBLK
  1

  9
$DIMASO
 70
     1
  9
$DIMSHO
 70
     1
  9
$DIMPOST
  1

  9
$DIMAPOST
  1

  9
$DIMALT
 70
     0
  9
$DIMALTD
 70
     2
  9
$DIMALTF
 40
25.399999999999999
  9
$DIMLFAC
 40
1.0
  9
$DIMTOFL
 70
     0
  9
$DIMTVP
 40
0.0
  9
$DIMTIX
 70
     0
  9
$DIMSOXD
 70
     0
  9
$DIMSAH
 70
     0
  9
$DIMBLK1
  1

  9
$DIMBLK2
  1

  9
$DIMSTYLE
  2
STANDARD
  9
$DIMCLRD
 70
     0
  9
$DIMCLRE
 70
     0
  9
$DIMCLRT
 70
     0
  9
$DIMTFAC
 40
1.0
  9
$DIMGAP
 40
0.09
  9
$LUNITS
 70
     2
  9
$LUPREC
 70
     4
  9
$SKETCHINC
 40
0.1
  9
$FILLETRAD
 40
0.0
  9
$AUNITS
 70
     0
  9
$AUPREC
 70
     0
  9
$MENU
  1
acad
  9
$ELEVATION
 40
0.0
  9
$PELEVATION
 40
0.0
  9
$THICKNESS
 40
0.0
  9
$LIMCHECK
 70
     0
  9
$BLIPMODE
 70
     0
  9
$CHAMFERA
 40
0.0
  9
$CHAMFERB
 40
0.0
  9
$SKPOLY
 70
     0
  9
$TDCREATE
 40
2455223.8694675928
  9
$TDUPDATE
 40
2455223.8714907411
  9
$TDINDWG
 40
0.0002578704
  9
$TDUSRTIMER
 40
0.0002578704
  9
$USRTIMER
 70
     1
  9
$ANGBASE
 50
0.0
  9
$ANGDIR
 70
     0
  9
$PDMODE
 70
     1
  9
$PDSIZE
 40
-2.0
  9
$PLINEWID
 40
0.0
  9
$COORDS
 70
     0
  9
$SPLFRAME
 70
     0
  9
$SPLINETYPE
 70
     6
  9
$SPLINESEGS
 70
     8
  9
$ATTDIA
 70
     0
  9
$ATTREQ
 70
     1
  9
$HANDLING
 70
     1
  9
$HANDSEED
  5
8D9
  9
$SURFTAB1
 70
     6
  9
$SURFTAB2
 70
     6
  9
$SURFTYPE
 70
     6
  9
$SURFU
 70
     6
  9
$SURFV
 70
     6
  9
$UCSNAME
  2

  9
$UCSORG
 10
0.0
 20
0.0
 30
0.0
  9
$UCSXDIR
 10
1.0
 20
0.0
 30
0.0
  9
$UCSYDIR
 10
0.0
 20
1.0
 30
0.0
  9
$PUCSNAME
  2

  9
$PUCSORG
 10
0.0
 20
0.0
 30
0.0
  9
$PUCSXDIR
 10
1.0
 20
0.0
 30
0.0
  9
$PUCSYDIR
 10
0.0
 20
1.0
 30
0.0
  9
$USERI1
 70
     0
  9
$USERI2
 70
     0
  9
$USERI3
 70
     0
  9
$USERI4
 70
     0
  9
$USERI5
 70
     0
  9
$USERR1
 40
0.0
  9
$USERR2
 40
0.0
  9
$USERR3
 40
0.0
  9
$USERR4
 40
0.0
  9
$USERR5
 40
0.0
  9
$WORLDVIEW
 70
     1
  9
$SHADEDGE
 70
     3
  9
$SHADEDIF
 70
    70
  9
$TILEMODE
 70
     1
  9
$MAXACTVP
 70
    64
  9
$PLIMCHECK
 70
     0
  9
$PEXTMIN
 10
1.0000000000000000E+020
 20
1.0000000000000000E+020
 30
1.0000000000000000E+020
  9
$PEXTMAX
 10
-1.0000000000000000E+020
 20
-1.0000000000000000E+020
 30
-1.0000000000000000E+020
  9
$PLIMMIN
 10
0.0
 20
0.0
  9
$PLIMMAX
 10
12.0
 20
9.0
  9
$UNITMODE
 70
     0
  9
$VISRETAIN
 70
     0
  9
$PLINEGEN
 70
     1
  9
$PSLTSCALE
 70
     0
  0
ENDSEC
  0
SECTION
  2
TABLES
  0
TABLE
  2
VPORT
 70
     1
  0
VPORT
  2
*ACTIVE
 70
     0
 10
0.0
 20
0.0
 11
1.0
 21
1.0
 12
100.0000012572857
 22
135.64298567617911
 13
0.0
 23
0.0
 14
1.0
 24
1.0
 15
0.0
 25
0.0
 16
0.0
 26
0.0
 36
1.0
 17
0.0
 27
0.0
 37
0.0
 40
808.80830272180265
 41
1.964329643296433
 42
50.0
 43
0.0
 44
0.0
 50
0.0
 51
0.0
 71
     0
 72
  2000
 73
     1
 74
     1
 75
     0
 76
     0
 77
     0
 78
     0
  0
ENDTAB
  0
TABLE
  2
LTYPE
 70
    11
  0
LTYPE
  2
CONTINUOUS
 70
     0
  3
Solid line
 72
    65
 73
     0
 40
0.0
  0
LTYPE
  2
STYLE_01
 70
     0
  3

 72
    65
 73
     2
 40
0.4166412353515625
 49
0.208282470703125
 49
-0.2083587646484375
  0
LTYPE
  2
STYLE_05
 70
     0
  3

 72
    65
 73
     2
 40
0.208282470703125
 49
0.069427490234375
 49
-0.13885498046875
  0
ENDTAB
  0
TABLE
  2
LAYER
 70
     6
  0
LAYER
  2
0
 70
     0
 62
     7
  6
CONTINUOUS
  0
LAYER
  2
DATA
 70
     0
 62
     7
  6
CONTINUOUS
  0
LAYER
  2
HIBINO-BASE
 70
     0
 62
     7
  6
CONTINUOUS
  0
LAYER
  2
PATTERN_FILL
 70
     0
 62
     7
  6
CONTINUOUS
  0
LAYER
  2
SPEC
 70
     0
 62
     7
  6
CONTINUOUS
  0
LAYER
  2
DIMNSIONS
 70
     0
 62
     7
  6
CONTINUOUS
  0
ENDTAB
  0
TABLE
  2
STYLE
 70
     3
  0
STYLE
  2
STANDARD
 70
     0
 40
0.0
 41
1.0
 50
0.0
 71
     0
 42
0.0
  3
txt
  4
BIGFONT.SHX
  0
ENDTAB
  0
TABLE
  2
VIEW
 70
     0
  0
ENDTAB
  0
TABLE
  2
UCS
 70
     0
  0
ENDTAB
  0
TABLE
  2
APPID
 70
     3
  0
APPID
  2
ACAD
 70
     0
  0
APPID
  2
ACADANNOTATIVE
 70
     0
  0
APPID
  2
ACAD_MLEADERVER
 70
     0
  0
ENDTAB
  0
TABLE
  2
DIMSTYLE
 70
     2
  0
DIMSTYLE
  2
STANDARD
 70
     0
  3

  4

  5

  6

  7

 40
1.0
 41
0.18
 42
0.0625
 43
0.38
 44
0.18
 45
0.0
 46
0.0
 47
0.0
 48
0.0
140
0.18
141
0.09
142
0.0
143
25.399999999999999
144
1.0
145
0.0
146
1.0
147
0.09
 71
     0
 72
     0
 73
     1
 74
     1
 75
     0
 76
     0
 77
     0
 78
     0
170
     0
171
     2
172
     0
173
     0
174
     0
175
     0
176
     0
177
     0
178
     0
  0
ENDTAB
  0
ENDSEC
  0
SECTION
  2
BLOCKS
  0
BLOCK
  8
0
  2
$MODEL_SPACE
 70
     0
 10
0.0
 20
0.0
 30
0.0
  3
$MODEL_SPACE
  1

  0
ENDBLK
  5
6D1
  8
0
  0
BLOCK
 67
     1
  8
0
  2
$PAPER_SPACE
 70
     0
 10
0.0
 20
0.0
 30
0.0
  3
$PAPER_SPACE
  1

  0
ENDBLK
  5
6CD
 67
     1
  8
0
  0
ENDSEC
  0
SECTION
  2
ENTITIES
  0
LINE
  5
2D
  8
HIBINO-BASE
  6
CONTINUOUS
 62
     7
 10
-169.99999999999989
 20
537.06362999999999
 30
0.0
 11
370.0
 21
537.06362999999999
 31
0.0
  0
LINE
  5
2E
  8
HIBINO-BASE
  6
CONTINUOUS
 62
     7
 10
370.0
 20
-242.93637000000001
 30
0.0
 11
-169.99999999999989
 21
-242.93637000000001
 31
0.0
  0
LINE
  5
2F
  8
HIBINO-BASE
  6
CONTINUOUS
 62
     7
 10
-169.99999999999989
 20
-242.93637000000001
 30
0.0
 11
-169.99999999999989
 21
537.06362999999999
 31
0.0
  0
TEXT
  5
30
  8
HIBINO-BASE
 62
     7
 10
-148.44799999999989
 20
-262.1624033999999
 30
0.0
 40
10.800132539062499
  1
Hibino Corporation
 41
0.7
 11
-148.44799999999989
 21
-251.3622708609374
 31
0.0
 73
     3
  0
LINE
  5
31
  8
HIBINO-BASE
  6
CONTINUOUS
 62
     7
 10
370.0
 20
537.06362999999999
 30
0.0
 11
370.0
 21
-242.93637000000001
 31
0.0
  0
LINE
  5
32
  8
HIBINO-BASE
  6
CONTINUOUS
 62
     7
 10
100.0
 20
-175.4363699999999
 30
0.0
 11
370.0
 21
-175.4363699999999
 31
0.0
  0
LINE
  5
33
  8
HIBINO-BASE
  6
CONTINUOUS
 62
     7
 10
100.0
 20
-242.93637000000001
 30
0.0
 11
100.0
 21
-175.4363699999999
 31
0.0
  0
TEXT
  5
34
  8
HIBINO-BASE
 62
     7
 10
102.7
 20
-182.96244999999999
 30
0.0
 40
4.8865234374999993
  1
NOTE
 41
0.7
 11
102.7
 21
-178.0759265625
 31
0.0
 73
     3
  0
LINE
  5
35
  8
HIBINO-BASE
  6
CONTINUOUS
 62
     7
 10
205.0
 20
-242.93637000000001
 30
0.0
 11
205.0
 21
-175.4363699999999
 31
0.0
  0
TEXT
  5
36
  8
HIBINO-BASE
 62
     7
 10
207.69999999999999
 20
-182.96244999999999
 30
0.0
 40
4.8865234374999993
  1
TITLE
 41
0.7
 11
207.69999999999999
 21
-178.0759265625
 31
0.0
 73
     3
  0
TEXT
  5
37
  8
HIBINO-BASE
 62
     7
 10
250.2051699999999
 20
-262.1624033999999
 30
0.0
 40
10.800132539062499
  1
ヒビノ株式会社
 41
0.7
 11
250.2051699999999
 21
-251.3622708609374
 31
0.0
 73
     3
  0
LINE
  5
38
  8
HIBINO-BASE
  6
CONTINUOUS
 62
     7
 10
100.0
 20
-212.9363699999999
 30
0.0
 11
370.0
 21
-212.9363699999999
 31
0.0
  0
TEXT
  5
39
  8
HIBINO-BASE
 62
     7
 10
245.19999999999999
 20
-220.29348999999999
 30
0.0
 40
4.8865234374999993
  1
DRAWN
 41
0.7
 11
245.19999999999999
 21
-215.4069665625
 31
0.0
 73
     3
  0
TEXT
  5
3A
  8
HIBINO-BASE
 62
     7
 10
170.19999999999999
 20
-220.29348999999999
 30
0.0
 40
4.8865234374999993
  1
DATE
 41
0.7
 11
170.19999999999999
 21
-215.4069665625
 31
0.0
 73
     3
  0
TEXT
  5
3B
  8
HIBINO-BASE
 62
     7
 10
140.19999999999999
 20
-220.29348999999999
 30
0.0
 40
4.8865234374999993
  1
SCALE
 41
0.7
 11
140.19999999999999
 21
-215.4069665625
 31
0.0
 73
     3
  0
TEXT
  5
3C
  8
HIBINO-BASE
 62
     7
 10
207.69999999999999
 20
-220.29348999999999
 30
0.0
 40
4.8865234374999993
  1
DESIGN
 41
0.7
 11
207.69999999999999
 21
-215.4069665625
 31
0.0
 73
     3
  0
TEXT
  5
3D
  8
HIBINO-BASE
 62
     7
 10
320.19999999999999
 20
-220.29348999999999
 30
0.0
 40
4.8865234374999993
  1
DRAWING NO.
 41
0.7
 11
320.19999999999999
 21
-215.4069665625
 31
0.0
 73
     3
  0
TEXT
  5
3E
  8
HIBINO-BASE
 62
     7
 10
282.69999999999999
 20
-220.29348999999999
 30
0.0
 40
4.8865234374999993
  1
CHECK
 41
0.7
 11
282.69999999999999
 21
-215.4069665625
 31
0.0
 73
     3
  0
LINE
  5
3F
  8
HIBINO-BASE
  6
CONTINUOUS
 62
     7
 10
143.12499999999989
 20
-239.18637000000001
 30
0.0
 11
154.375
 21
-227.93637000000001
 31
0.0
  0
TEXT
  5
40
  8
HIBINO-BASE
 62
     7
 10
141.24999999999989
 20
-231.26320000000001
 30
0.0
 40
4.8865234374999993
  1
1
 41
0.7
 11
141.24999999999989
 21
-226.37667656249999
 31
0.0
 73
     3
  0
LINE
  5
41
  8
HIBINO-BASE
  6
CONTINUOUS
 62
     7
 10
137.5
 20
-242.93637000000001
 30
0.0
 11
137.5
 21
-212.9363699999999
 31
0.0
  0
LINE
  5
42
  8
HIBINO-BASE
  6
CONTINUOUS
 62
     7
 10
167.5
 20
-242.93637000000001
 30
0.0
 11
167.5
 21
-212.9363699999999
 31
0.0
  0
LINE
  5
43
  8
HIBINO-BASE
  6
CONTINUOUS
 62
     7
 10
242.5
 20
-212.9363699999999
 30
0.0
 11
242.5
 21
-242.93637000000001
 31
0.0
  0
LINE
  5
44
  8
HIBINO-BASE
  6
CONTINUOUS
 62
     7
 10
317.5
 20
-212.9363699999999
 30
0.0
 11
317.5
 21
-242.93637000000001
 31
0.0
  0
LINE
  5
45
  8
HIBINO-BASE
  6
CONTINUOUS
 62
     7
 10
279.99999999999989
 20
-242.93637000000001
 30
0.0
 11
279.99999999999989
 21
-212.9363699999999
 31
0.0
  0
TEXT
  5
46
  8
HIBINO-BASE
 62
     7
 10
170.06961999999999
 20
-234.34542999999999
 30
0.0
 40
4.8865234374999993
  1
'10.01.
 41
0.7
 11
170.06961999999999
 21
-229.4589065625
 31
0.0
 73
     3
  0
TEXT
  5
47
  8
HIBINO-BASE
 62
     7
 10
152.5
 20
-236.88820000000001
 30
0.0
 40
4.8865234374999993
  1
3
 41
0.7
 11
152.5
 21
-232.00167656249999
 31
0.0
 73
     3
  0
TEXT
  5
48
  8
HIBINO-BASE
 62
     7
 10
247.01743003310389
 20
-234.34542999999999
 30
0.0
 40
4.8865234374999993
  1
N.Sasaki
 41
0.7
 11
247.01743003310389
 21
-229.4589065625
 31
0.0
 73
     3
  0
TEXT
  5
49
  8
HIBINO-BASE
 62
     7
 10
111.65000000000001
 20
-237.00837000000001
 30
0.0
 40
9.7730468749999986
  1
A4
 41
0.7
 11
111.65000000000001
 21
-227.23532312500001
 31
0.0
 73
     3
  0
TEXT
  5
4A
  8
HIBINO-BASE
 62
     7
 10
102.875
 20
-220.794735
 30
0.0
 40
4.8865234374999993
  1
PAPER SIZE
 41
0.7
 11
102.875
 21
-215.90821156249999
 31
0.0
 73
     3
  0
LINE
  5
4B
  8
PATTERN_FILL
  6
STYLE_05
 62
     7
 10
227.53128309210189
 20
18.469971849035851
 30
0.0
 11
234.4249373631873
 21
19.685509092704361
 31
0.0
  0
LINE
  5
4C
  8
PATTERN_FILL
  6
STYLE_05
 62
     7
 10
236.3350673175234
 20
8.8526238095700762
 30
0.0
 11
229.4414130464379
 21
7.6370865659015692
 31
0.0
  0
LINE
  5
4D
  8
PATTERN_FILL
  6
STYLE_05
 62
     7
 10
227.53128309210189
 20
18.469971849035851
 30
0.0
 11
229.4414130464379
 21
7.6370865659015692
 31
0.0
  0
LINE
  5
4E
  8
PATTERN_FILL
  6
STYLE_05
 62
     7
 10
238.8711370921944
 20
10.086756960015229
 30
0.0
 11
236.2004899798317
 21
9.6158498181545156
 31
0.0
  0
LINE
  5
4F
  8
PATTERN_FILL
  6
STYLE_05
 62
     7
 10
234.55951470087919
 20
18.922283084119869
 30
0.0
 11
237.22212826753861
 21
19.391773695122328
 31
0.0
  0
LINE
  5
50
  8
PATTERN_FILL
  6
STYLE_05
 62
     7
 10
236.3350673175234
 20
8.8526238095700762
 30
0.0
 11
234.42320088141059
 21
19.69535717023448
 31
0.0
  0
LINE
  5
51
  8
PATTERN_FILL
  6
STYLE_05
 62
     7
 10
228.99861019338729
 20
10.14834633608271
 30
0.0
 11
125.59379612710551
 21
-8.0847123189449785
 31
0.0
  0
LINE
  5
52
  8
PATTERN_FILL
  6
STYLE_05
 62
     7
 10
124.56927187887059
 20
-2.2743465761730302
 30
0.0
 11
227.97408594515241
 21
15.95871207885466
 31
0.0
  0
LINE
  5
53
  8
PATTERN_FILL
  6
STYLE_05
 62
     7
 10
124.30011720348691
 20
-0.7478945590040383
 30
0.0
 11
125.86295080248929
 21
-9.6111643361139176
 31
0.0
  0
LINE
  5
54
  8
PATTERN_FILL
  6
STYLE_05
 62
     7
 10
112.41296489627361
 20
-2.437749589802336
 30
0.0
 11
114.11471703740951
 21
-12.088865569321939
 31
0.0
  0
LINE
  5
55
  8
PATTERN_FILL
  6
STYLE_05
 62
     7
 10
125.86295080248929
 20
-9.6111643361139176
 30
0.0
 11
114.11471703740951
 21
-12.088865569321939
 31
0.0
  0
LINE
  5
56
  8
PATTERN_FILL
  6
STYLE_05
 62
     7
 10
124.30011720348691
 20
-0.7478945590040383
 30
0.0
 11
112.41296489627361
 21
-2.437749589802336
 31
0.0
  0
LINE
  5
57
  8
PATTERN_FILL
  6
STYLE_05
 62
     7
 10
94.686425342053838
 20
-5.5634167878070846
 30
0.0
 11
96.388177483189793
 21
-15.214532767326659
 31
0.0
  0
LINE
  5
58
  8
PATTERN_FILL
  6
STYLE_05
 62
     7
 10
114.11471703740951
 20
-12.088865569321939
 30
0.0
 11
84.369559830277254
 21
-17.333739330354199
 31
0.0
  0
LINE
  5
59
  8
PATTERN_FILL
  6
STYLE_05
 62
     7
 10
112.41296489627361
 20
-2.437749589802336
 30
0.0
 11
83.813274168618847
 21
-7.4806467050055971
 31
0.0
  0
LINE
  5
5A
  8
PATTERN_FILL
  6
STYLE_05
 62
     7
 10
175.08038571596899
 20
0.6411086088182856
 30
0.0
 11
173.12029410237241
 21
6.286508582806646
 31
0.0
  0
LINE
  5
5B
  8
PATTERN_FILL
  6
STYLE_05
 62
     7
 10
173.1107702099446
 20
0.2938122534844183
 30
0.0
 11
171.150678596348
 21
5.9392122274727788
 31
0.0
  0
LINE
  5
5C
  8
PATTERN_FILL
  6
STYLE_05
 62
     7
 10
171.14115470392011
 20
-0.053484101849449
 30
0.0
 11
169.18106309032359
 21
5.5919158721389124
 31
0.0
  0
LINE
  5
5D
  8
PATTERN_FILL
  6
STYLE_05
 62
     7
 10
169.17153919789561
 20
-0.4007804571833162
 30
0.0
 11
167.21144758429921
 21
5.2446195168050727
 31
0.0
  0
LINE
  5
5E
  8
PATTERN_FILL
  6
STYLE_05
 62
     7
 10
167.2019236918712
 20
-0.7480768125171835
 30
0.0
 11
165.2418320782748
 21
4.8973231614712063
 31
0.0
  0
LINE
  5
5F
  8
PATTERN_FILL
  6
STYLE_05
 62
     7
 10
165.2323081858469
 20
-1.0953731678510219
 30
0.0
 11
163.27221657225039
 21
4.550026806137339
 31
0.0
  0
LINE
  5
60
  8
PATTERN_FILL
  6
STYLE_05
 62
     7
 10
163.26269267982241
 20
-1.4426695231848889
 30
0.0
 11
161.302601066226
 21
4.2027304508034709
 31
0.0
  0
LINE
  5
61
  8
PATTERN_FILL
  6
STYLE_05
 62
     7
 10
161.293077173798
 20
-1.789965878518756
 30
0.0
 11
159.33298556020151
 21
3.855434095469604
 31
0.0
  0
LINE
  5
62
  8
PATTERN_FILL
  6
STYLE_05
 62
     7
 10
159.32346166777361
 20
-2.1372622338525962
 30
0.0
 11
157.3633700541771
 21
3.5081377401357652
 31
0.0
  0
LINE
  5
63
  8
PATTERN_FILL
  6
STYLE_05
 62
     7
 10
157.3538461617492
 20
-2.4845585891864621
 30
0.0
 11
155.39375454815271
 21
3.1608413848018979
 31
0.0
  0
LINE
  5
64
  8
PATTERN_FILL
  6
STYLE_05
 62
     7
 10
155.38423065572479
 20
-2.8318549445203298
 30
0.0
 11
153.4241390421283
 21
2.8135450294680311
 31
0.0
  0
LINE
  5
65
  8
PATTERN_FILL
  6
STYLE_05
 62
     7
 10
153.41461514970041
 20
-3.1791512998541971
 30
0.0
 11
151.45452353610389
 21
2.4662486741341629
 31
0.0
  0
LINE
  5
66
  8
PATTERN_FILL
  6
STYLE_05
 62
     7
 10
151.44499964367591
 20
-3.5264476551880639
 30
0.0
 11
149.4849080300794
 21
2.1189523188003241
 31
0.0
  0
LINE
  5
67
  8
PATTERN_FILL
  6
STYLE_05
 62
     7
 10
149.4753841376515
 20
-3.8737440105219321
 30
0.0
 11
147.51529252405501
 21
1.771655963466457
 31
0.0
  0
LINE
  5
68
  8
PATTERN_FILL
  6
STYLE_05
 62
     7
 10
147.50576863162709
 20
-4.22104036585577
 30
0.0
 11
145.5456770180306
 21
1.42435960813259
 31
0.0
  0
LINE
  5
69
  8
PATTERN_FILL
  6
STYLE_05
 62
     7
 10
145.53615312560271
 20
-4.5683367211896382
 30
0.0
 11
143.57606151200619
 21
1.0770632527987229
 31
0.0
  0
LINE
  5
6A
  8
PATTERN_FILL
  6
STYLE_05
 62
     7
 10
143.5665376195783
 20
-4.9156330765235046
 30
0.0
 11
141.60644600598181
 21
0.7297668974648559
 31
0.0
  0
LINE
  5
6B
  8
PATTERN_FILL
  6
STYLE_05
 62
     7
 10
141.5969221135538
 20
-5.2629294318573443
 30
0.0
 11
139.6368304999574
 21
0.3824705421310171
 31
0.0
  0
LINE
  5
6C
  8
PATTERN_FILL
  6
STYLE_05
 62
     7
 10
139.6273066075295
 20
-5.6102257871912107
 30
0.0
 11
137.66721499393299
 21
0.0351741867971498
 31
0.0
  0
LINE
  5
6D
  8
PATTERN_FILL
  6
STYLE_05
 62
     7
 10
137.65769110150501
 20
-5.9575221425250779
 30
0.0
 11
135.6975994879086
 21
-0.3121221685367175
 31
0.0
  0
LINE
  5
6E
  8
PATTERN_FILL
  6
STYLE_05
 62
     7
 10
135.6880755954806
 20
-6.3048184978589452
 30
0.0
 11
133.72798398188411
 21
-0.6594185238705564
 31
0.0
  0
LINE
  5
6F
  8
PATTERN_FILL
  6
STYLE_05
 62
     7
 10
133.71846008945619
 20
-6.6521148531928116
 30
0.0
 11
131.7583684758597
 21
-1.0067148792044229
 31
0.0
  0
LINE
  5
70
  8
PATTERN_FILL
  6
STYLE_05
 62
     7
 10
131.7488445834318
 20
-6.9994112085266522
 30
0.0
 11
129.78875296983529
 21
-1.35401123453829
 31
0.0
  0
LINE
  5
71
  8
PATTERN_FILL
  6
STYLE_05
 62
     7
 10
129.77922907740731
 20
-7.3467075638605177
 30
0.0
 11
127.8191374638109
 21
-1.701307589872157
 31
0.0
  0
LINE
  5
72
  8
PATTERN_FILL
  6
STYLE_05
 62
     7
 10
127.8096135713829
 20
-7.6940039191943868
 30
0.0
 11
125.84952195778649
 21
-2.048603945206025
 31
0.0
  0
LINE
  5
73
  8
PATTERN_FILL
  6
STYLE_05
 62
     7
 10
265.15496442137783
 20
12.411209332392749
 30
0.0
 11
253.33727138523139
 21
10.327431200389579
 31
0.0
  0
LINE
  5
74
  8
PATTERN_FILL
  6
STYLE_05
 62
     7
 10
250.90619689789449
 20
24.114739742560491
 30
0.0
 11
262.72388993404093
 21
26.19851787456367
 31
0.0
  0
LINE
  5
75
  8
PATTERN_FILL
  6
STYLE_05
 62
     7
 10
263.91707550025347
 20
25.190396748615878
 30
0.0
 11
265.9313943611898
 21
13.76662681367432
 31
0.0
  0
LINE
  5
76
  8
PATTERN_FILL
  6
STYLE_05
 62
     7
 10
262.93226774724121
 20
25.01674857094898
 30
0.0
 11
263.91707550025347
 21
25.190396748615878
 31
0.0
  0
LINE
  5
77
  8
PATTERN_FILL
  6
STYLE_05
 62
     7
 10
265.9313943611898
 20
13.76662681367432
 30
0.0
 11
264.94658660817748
 21
13.592978636007389
 31
0.0
  0
LINE
  5
78
  8
PATTERN_FILL
  6
STYLE_05
 62
     7
 10
265.15496442137783
 20
12.411209332392749
 30
0.0
 11
262.72388993404093
 21
26.19851787456367
 31
0.0
  0
LINE
  5
79
  8
PATTERN_FILL
  6
STYLE_05
 62
     7
 10
250.90619689789449
 20
24.114739742560491
 30
0.0
 11
253.33727138523139
 21
10.327431200389579
 31
0.0
  0
LINE
  5
7A
  8
PATTERN_FILL
  6
STYLE_05
 62
     7
 10
253.25044729639799
 20
10.81983507689568
 30
0.0
 11
248.50610836743891
 21
9.9832801180946849
 31
0.0
  0
LINE
  5
7B
  8
PATTERN_FILL
  6
STYLE_05
 62
     7
 10
246.2660236201713
 20
22.788838692592641
 30
0.0
 11
250.9930209867278
 21
23.622335866054389
 31
0.0
  0
CIRCLE
  5
7C
  8
PATTERN_FILL
  6
STYLE_05
 62
     7
 10
243.74999999979579
 20
15.749999999902419
 30
0.0
 40
7.474999999999957
  0
CIRCLE
  5
7D
  8
PATTERN_FILL
  6
STYLE_05
 62
     7
 10
243.74999999979579
 20
15.749999999902419
 30
0.0
 40
6.5999999999999606
  0
LINE
  5
7E
  8
PATTERN_FILL
  6
STYLE_05
 62
     7
 10
85.722061147567715
 20
-5.1132228364204204
 30
0.0
 11
67.749319655390352
 21
-8.2823020787897974
 31
0.0
  0
LINE
  5
7F
  8
PATTERN_FILL
  6
STYLE_05
 62
     7
 10
82.233216791856663
 20
-24.15839323355096
 30
0.0
 11
75.325775416429067
 21
-25.37636151570084
 31
0.0
  0
ARC
  5
80
  8
PATTERN_FILL
  6
STYLE_05
 62
     7
 10
89.239533119884925
 20
-11.47714315649824
 30
0.0
 40
20.019411788534949
 50
202.96643352930209
 51
223.01534812579109
  0
ARC
  5
81
  8
PATTERN_FILL
  6
STYLE_05
 62
     7
 10
128.8516866357302
 20
2.7648128143028141
 30
0.0
 40
62.092978653478312
 50
190.248190345822
 51
200.8036690096267
  0
ARC
  5
82
  8
PATTERN_FILL
  6
STYLE_05
 62
     7
 10
64.404748695186726
 20
-15.856185710650861
 30
0.0
 40
20.019411788534949
 50
336.98465187420908
 51
357.03356647069779
  0
ARC
  5
83
  8
PATTERN_FILL
  6
STYLE_05
 62
     7
 10
22.31046452053716
 20
-16.02127920225908
 30
0.0
 40
62.092978653478312
 50
359.19633099037321
 51
9.7518096541778601
  0
ARC
  5
84
  8
PATTERN_FILL
  6
STYLE_05
 62
     7
 10
75.186856874295486
 20
-24.588515313291051
 30
0.0
 40
0.7999999999999484
 50
223.015348125792
 51
280.00000000000239
  0
ARC
  5
85
  8
PATTERN_FILL
  6
STYLE_05
 62
     7
 10
82.094298249723067
 20
-23.3705470311412
 30
0.0
 40
0.7999999999999932
 50
280.00000000000267
 51
336.98465187421039
  0
LINE
  5
86
  8
PATTERN_FILL
  6
STYLE_05
 62
     7
 10
85.722061147567715
 20
-5.1132228364204204
 30
0.0
 11
86.069357502901553
 21
-7.0828383424448313
 31
0.0
  0
LINE
  5
87
  8
PATTERN_FILL
  6
STYLE_05
 62
     7
 10
74.083243572647362
 20
-12.24259345785145
 30
0.0
 11
71.030339538309491
 21
-12.78090280861894
 31
0.0
  0
LINE
  5
88
  8
PATTERN_FILL
  6
STYLE_05
 62
     7
 10
76.329373831654507
 20
-22.96546149115164
 30
0.0
 11
74.943749425561805
 21
-23.209784459073941
 31
0.0
  0
ARC
  5
89
  8
PATTERN_FILL
  6
STYLE_05
 62
     7
 10
105.3261605313308
 20
-5.8601770134465019
 30
0.0
 40
34.987137395296109
 50
191.40878952305161
 51
209.7281455848636
  0
ARC
  5
8A
  8
PATTERN_FILL
  6
STYLE_05
 62
     7
 10
-27.733224416001349
 20
-39.166877960649693
 30
0.0
 40
105.3162392495628
 50
8.8492874279990392
 51
14.812209868051861
  0
LINE
  5
8B
  8
PATTERN_FILL
  6
STYLE_05
 62
     7
 10
78.908801562998065
 20
-11.391717387179311
 30
0.0
 11
81.961705597335893
 21
-10.853408036411819
 31
0.0
  0
LINE
  5
8C
  8
PATTERN_FILL
  6
STYLE_05
 62
     7
 10
80.465566394896669
 20
-22.23613914484633
 30
0.0
 11
81.851190800989329
 21
-21.991816176924061
 31
0.0
  0
ARC
  5
8D
  8
PATTERN_FILL
  6
STYLE_05
 62
     7
 10
47.367148058016809
 20
-16.079914687710211
 30
0.0
 40
34.987137395296088
 50
350.27185441513637
 51
8.5912104769482784
  0
ARC
  5
8E
  8
PATTERN_FILL
  6
STYLE_05
 62
     7
 10
183.79363285100411
 20
-1.86898588000821
 30
0.0
 40
105.3162392495628
 50
185.18779013194811
 51
191.15071257200091
  0
LINE
  5
8F
  8
PATTERN_FILL
  6
STYLE_05
 62
     7
 10
177.0500012219934
 20
0.9884049641521244
 30
0.0
 11
175.08990960839679
 21
6.6338049381404849
 31
0.0
  0
LINE
  5
90
  8
PATTERN_FILL
  6
STYLE_05
 62
     7
 10
179.01961672801781
 20
1.335701319485991
 30
0.0
 11
177.0595251144214
 21
6.9811012934743522
 31
0.0
  0
LINE
  5
91
  8
PATTERN_FILL
  6
STYLE_05
 62
     7
 10
180.98923223404219
 20
1.682997674819859
 30
0.0
 11
179.02914062044579
 21
7.3283976488082212
 31
0.0
  0
LINE
  5
92
  8
PATTERN_FILL
  6
STYLE_05
 62
     7
 10
182.9588477400666
 20
2.0302940301536969
 30
0.0
 11
180.9987561264702
 21
7.6756940041420858
 31
0.0
  0
LINE
  5
93
  8
PATTERN_FILL
  6
STYLE_05
 62
     7
 10
184.92846324609101
 20
2.3775903854875642
 30
0.0
 11
182.96837163249461
 21
8.0229903594759548
 31
0.0
  0
LINE
  5
94
  8
PATTERN_FILL
  6
STYLE_05
 62
     7
 10
186.8980787521154
 20
2.7248867408214319
 30
0.0
 11
184.93798713851879
 21
8.3702867148097937
 31
0.0
  0
LINE
  5
95
  8
PATTERN_FILL
  6
STYLE_05
 62
     7
 10
188.86769425813981
 20
3.0721830961553001
 30
0.0
 11
186.9076026445432
 21
8.7175830701436592
 31
0.0
  0
LINE
  5
96
  8
PATTERN_FILL
  6
STYLE_05
 62
     7
 10
190.8373097641643
 20
3.419479451489166
 30
0.0
 11
188.8772181505677
 21
9.0648794254775016
 31
0.0
  0
LINE
  5
97
  8
PATTERN_FILL
  6
STYLE_05
 62
     7
 10
192.80692527018871
 20
3.7667758068230328
 30
0.0
 11
190.84683365659211
 21
9.4121757808113689
 31
0.0
  0
LINE
  5
98
  8
PATTERN_FILL
  6
STYLE_05
 62
     7
 10
194.7765407762131
 20
4.1140721621568721
 30
0.0
 11
192.81644916261649
 21
9.7594721361452343
 31
0.0
  0
LINE
  5
99
  8
PATTERN_FILL
  6
STYLE_05
 62
     7
 10
196.74615628223751
 20
4.4613685174907403
 30
0.0
 11
194.78606466864099
 21
10.1067684914791
 31
0.0
  0
LINE
  5
9A
  8
PATTERN_FILL
  6
STYLE_05
 62
     7
 10
198.71577178826189
 20
4.8086648728246084
 30
0.0
 11
196.7556801746654
 21
10.45406484681296
 31
0.0
  0
LINE
  5
9B
  8
PATTERN_FILL
  6
STYLE_05
 62
     7
 10
200.68538729428639
 20
5.1559612281584464
 30
0.0
 11
198.7252956806899
 21
10.801361202146831
 31
0.0
  0
LINE
  5
9C
  8
PATTERN_FILL
  6
STYLE_05
 62
     7
 10
202.65500280031071
 20
5.5032575834923128
 30
0.0
 11
200.69491118671431
 21
11.14865755748067
 31
0.0
  0
LINE
  5
9D
  8
PATTERN_FILL
  6
STYLE_05
 62
     7
 10
204.62461830633521
 20
5.85055393882618
 30
0.0
 11
202.66452669273869
 21
11.49595391281454
 31
0.0
  0
LINE
  5
9E
  8
PATTERN_FILL
  6
STYLE_05
 62
     7
 10
206.59423381235959
 20
6.1978502941600482
 30
0.0
 11
204.6341421987631
 21
11.843250268148379
 31
0.0
  0
LINE
  5
9F
  8
PATTERN_FILL
  6
STYLE_05
 62
     7
 10
208.563849318384
 20
6.5451466494939146
 30
0.0
 11
206.6037577047876
 21
12.19054662348227
 31
0.0
  0
LINE
  5
A0
  8
PATTERN_FILL
  6
STYLE_05
 62
     7
 10
210.53346482440841
 20
6.8924430048277827
 30
0.0
 11
208.57337321081201
 21
12.53784297881613
 31
0.0
  0
LINE
  5
A1
  8
PATTERN_FILL
  6
STYLE_05
 62
     7
 10
212.50308033043279
 20
7.2397393601616198
 30
0.0
 11
210.54298871683639
 21
12.885139334149979
 31
0.0
  0
LINE
  5
A2
  8
PATTERN_FILL
  6
STYLE_05
 62
     7
 10
214.47269583645721
 20
7.5870357154954871
 30
0.0
 11
212.5126042228608
 21
13.23243568948385
 31
0.0
  0
LINE
  5
A3
  8
PATTERN_FILL
  6
STYLE_05
 62
     7
 10
216.44231134248159
 20
7.9343320708293259
 30
0.0
 11
214.48221972888521
 21
13.5797320448177
 31
0.0
  0
LINE
  5
A4
  8
PATTERN_FILL
  6
STYLE_05
 62
     7
 10
218.41192684850611
 20
8.2816284261631932
 30
0.0
 11
216.45183523490959
 21
13.927028400151571
 31
0.0
  0
LINE
  5
A5
  8
PATTERN_FILL
  6
STYLE_05
 62
     7
 10
220.3815423545305
 20
8.6289247814970622
 30
0.0
 11
218.42145074093401
 21
14.27432475548542
 31
0.0
  0
LINE
  5
A6
  8
PATTERN_FILL
  6
STYLE_05
 62
     7
 10
222.35115786055491
 20
8.9762211368309295
 30
0.0
 11
220.39106624695839
 21
14.621621110819291
 31
0.0
  0
LINE
  5
A7
  8
PATTERN_FILL
  6
STYLE_05
 62
     7
 10
224.3207733665794
 20
9.3235174921647967
 30
0.0
 11
222.3606817529828
 21
14.96891746615314
 31
0.0
  0
LINE
  5
A8
  8
PATTERN_FILL
  6
STYLE_05
 62
     7
 10
226.29038887260381
 20
9.670813847498664
 30
0.0
 11
224.3302972590073
 21
15.316213821487009
 31
0.0
  0
LINE
  5
A9
  8
PATTERN_FILL
  6
STYLE_05
 62
     7
 10
228.2600043786282
 20
10.01811020283253
 30
0.0
 11
226.29991276503159
 21
15.663510176820861
 31
0.0
  0
LINE
  5
AA
  8
PATTERN_FILL
  6
STYLE_05
 62
     7
 10
248.9030988635034
 20
-33.630372589809298
 30
0.0
 11
252.25144522374489
 21
-33.039968785741728
 31
0.0
  0
LINE
  5
AB
  8
PATTERN_FILL
  6
STYLE_05
 62
     7
 10
252.44840677434749
 20
-33.005239150208361
 30
0.0
 11
255.79675313458881
 21
-32.414835346140791
 31
0.0
  0
LINE
  5
AC
  8
PATTERN_FILL
  6
STYLE_05
 62
     7
 10
248.9030988635034
 20
-33.630372589809362
 30
0.0
 11
247.3636986042782
 21
-24.899999886550379
 31
0.0
  0
LINE
  5
AD
  8
PATTERN_FILL
  6
STYLE_05
 62
     7
 10
255.79675313458881
 20
-32.414835346140862
 30
0.0
 11
254.25735287536349
 21
-23.684462642881702
 31
0.0
  0
LINE
  5
AE
  8
PATTERN_FILL
  6
STYLE_05
 62
     7
 10
279.64782614649198
 20
10.840892880530451
 30
0.0
 11
279.07478716019119
 21
14.090758465470801
 31
0.0
  0
ARC
  5
AF
  8
PATTERN_FILL
  6
STYLE_05
 62
     7
 10
246.31445692493841
 20
1.2062420648762211
 30
0.0
 40
6.9999999999999991
 50
99.999999999999503
 51
41.908982735317032
  0
CIRCLE
  5
B0
  8
PATTERN_FILL
  6
STYLE_05
 62
     7
 10
246.31445692493841
 20
1.2062420648762211
 30
0.0
 40
0.9999999999999932
  0
CIRCLE
  5
B1
  8
PATTERN_FILL
  6
STYLE_05
 62
     7
 10
246.31445692493841
 20
1.2062420648762211
 30
0.0
 40
4.2500000000000044
  0
LINE
  5
B2
  8
PATTERN_FILL
  6
STYLE_05
 62
     7
 10
245.09891968126999
 20
8.099896335961688
 30
0.0
 11
279.07478716019119
 21
14.090758465470801
 31
0.0
  0
LINE
  5
B3
  8
PATTERN_FILL
  6
STYLE_05
 62
     7
 10
251.52390477292531
 20
5.8818867390471876
 30
0.0
 11
279.64782614649198
 21
10.840892880530451
 31
0.0
  0
LINE
  5
B4
  8
PATTERN_FILL
  6
STYLE_05
 62
     7
 10
240.415354525157
 20
-5.649679125184945
 30
0.0
 11
240.4153564879864
 21
-5.6496902569437557
 31
0.0
  0
LINE
  5
B5
  8
PATTERN_FILL
  6
STYLE_05
 62
     7
 10
242.19352489769921
 20
-4.4521958138030291
 30
0.0
 11
240.415354525157
 21
-5.649679125184945
 31
0.0
  0
POLYLINE
  5
B6
  8
PATTERN_FILL
  6
STYLE_05
 62
     7
 66
     1
 10
0.0
 20
0.0
 30
0.0
 70
   128
  0
VERTEX
  5
700
  8
PATTERN_FILL
  6
STYLE_05
 62
     7
 10
246.92819796391461
 20
-22.985037482415208
 30
0.0
  0
VERTEX
  5
701
  8
PATTERN_FILL
  6
STYLE_05
 62
     7
 10
246.84027585362119
 20
-22.694919577443301
 30
0.0
  0
VERTEX
  5
702
  8
PATTERN_FILL
  6
STYLE_05
 62
     7
 10
246.7519143443298
 20
-22.405412876618691
 30
0.0
  0
VERTEX
  5
703
  8
PATTERN_FILL
  6
STYLE_05
 62
     7
 10
246.6631134360405
 20
-22.116517379941399
 30
0.0
  0
VERTEX
  5
704
  8
PATTERN_FILL
  6
STYLE_05
 62
     7
 10
246.57387312875309
 20
-21.82823308741143
 30
0.0
  0
VERTEX
  5
705
  8
PATTERN_FILL
  6
STYLE_05
 62
     7
 10
246.48419342246771
 20
-21.540559999028741
 30
0.0
  0
VERTEX
  5
706
  8
PATTERN_FILL
  6
STYLE_05
 62
     7
 10
246.39407431718439
 20
-21.253498114793391
 30
0.0
  0
VERTEX
  5
707
  8
PATTERN_FILL
  6
STYLE_05
 62
     7
 10
246.30351581290299
 20
-20.967047434705329
 30
0.0
  0
VERTEX
  5
708
  8
PATTERN_FILL
  6
STYLE_05
 62
     7
 10
246.21251790962361
 20
-20.681207958764581
 30
0.0
  0
VERTEX
  5
709
  8
PATTERN_FILL
  6
STYLE_05
 62
     7
 10
246.12108060734619
 20
-20.395979686971149
 30
0.0
  0
VERTEX
  5
70A
  8
PATTERN_FILL
  6
STYLE_05
 62
     7
 10
246.02920390607071
 20
-20.111362619325011
 30
0.0
  0
VERTEX
  5
70B
  8
PATTERN_FILL
  6
STYLE_05
 62
     7
 10
245.93688780579731
 20
-19.82735675582617
 30
0.0
  0
VERTEX
  5
70C
  8
PATTERN_FILL
  6
STYLE_05
 62
     7
 10
245.84413230652589
 20
-19.54396209647464
 30
0.0
  0
VERTEX
  5
70D
  8
PATTERN_FILL
  6
STYLE_05
 62
     7
 10
245.75093740825639
 20
-19.261178641270408
 30
0.0
  0
VERTEX
  5
70E
  8
PATTERN_FILL
  6
STYLE_05
 62
     7
 10
245.65730311098901
 20
-18.979006390213531
 30
0.0
  0
VERTEX
  5
70F
  8
PATTERN_FILL
  6
STYLE_05
 62
     7
 10
245.56322941472359
 20
-18.69744534330394
 30
0.0
  0
VERTEX
  5
710
  8
PATTERN_FILL
  6
STYLE_05
 62
     7
 10
245.4687163194601
 20
-18.416495500541629
 30
0.0
  0
VERTEX
  5
711
  8
PATTERN_FILL
  6
STYLE_05
 62
     7
 10
245.37376382519861
 20
-18.136156861926619
 30
0.0
  0
VERTEX
  5
712
  8
PATTERN_FILL
  6
STYLE_05
 62
     7
 10
245.2783719319392
 20
-17.85642942745897
 30
0.0
  0
VERTEX
  5
713
  8
PATTERN_FILL
  6
STYLE_05
 62
     7
 10
245.18254063968169
 20
-17.577313197138611
 30
0.0
  0
VERTEX
  5
714
  8
PATTERN_FILL
  6
STYLE_05
 62
     7
 10
245.08626994842609
 20
-17.29880817096554
 30
0.0
  0
VERTEX
  5
715
  8
PATTERN_FILL
  6
STYLE_05
 62
     7
 10
244.9895598581727
 20
-17.020914348939751
 30
0.0
  0
VERTEX
  5
716
  8
PATTERN_FILL
  6
STYLE_05
 62
     7
 10
244.89241036892119
 20
-16.743631731061331
 30
0.0
  0
VERTEX
  5
717
  8
PATTERN_FILL
  6
STYLE_05
 62
     7
 10
244.79482148067169
 20
-16.46696031733017
 30
0.0
  0
VERTEX
  5
718
  8
PATTERN_FILL
  6
STYLE_05
 62
     7
 10
244.6967931934241
 20
-16.190900107746359
 30
0.0
  0
VERTEX
  5
719
  8
PATTERN_FILL
  6
STYLE_05
 62
     7
 10
244.5983255071786
 20
-15.91545110230981
 30
0.0
  0
VERTEX
  5
71A
  8
PATTERN_FILL
  6
STYLE_05
 62
     7
 10
244.49941842193499
 20
-15.640613301020609
 30
0.0
  0
VERTEX
  5
71B
  8
PATTERN_FILL
  6
STYLE_05
 62
     7
 10
244.40007193769361
 20
-15.36638670387868
 30
0.0
  0
VERTEX
  5
71C
  8
PATTERN_FILL
  6
STYLE_05
 62
     7
 10
244.30028605445401
 20
-15.09277131088407
 30
0.0
  0
VERTEX
  5
71D
  8
PATTERN_FILL
  6
STYLE_05
 62
     7
 10
244.20006077221649
 20
-14.819767122036749
 30
0.0
  0
VERTEX
  5
71E
  8
PATTERN_FILL
  6
STYLE_05
 62
     7
 10
244.0993960909808
 20
-14.54737413733676
 30
0.0
  0
VERTEX
  5
71F
  8
PATTERN_FILL
  6
STYLE_05
 62
     7
 10
243.99829201074721
 20
-14.275592356784101
 30
0.0
  0
VERTEX
  5
720
  8
PATTERN_FILL
  6
STYLE_05
 62
     7
 10
243.89674853151561
 20
-14.004421780378721
 30
0.0
  0
VERTEX
  5
721
  8
PATTERN_FILL
  6
STYLE_05
 62
     7
 10
243.79476565328611
 20
-13.73386240812064
 30
0.0
  0
VERTEX
  5
722
  8
PATTERN_FILL
  6
STYLE_05
 62
     7
 10
243.6923433760584
 20
-13.463914240009901
 30
0.0
  0
VERTEX
  5
723
  8
PATTERN_FILL
  6
STYLE_05
 62
     7
 10
243.5894816998329
 20
-13.194577276046459
 30
0.0
  0
VERTEX
  5
724
  8
PATTERN_FILL
  6
STYLE_05
 62
     7
 10
243.48618062460929
 20
-12.92585151623029
 30
0.0
  0
VERTEX
  5
725
  8
PATTERN_FILL
  6
STYLE_05
 62
     7
 10
243.38244015038759
 20
-12.657736960561429
 30
0.0
  0
VERTEX
  5
726
  8
PATTERN_FILL
  6
STYLE_05
 62
     7
 10
243.27826027716799
 20
-12.39023360903991
 30
0.0
  0
VERTEX
  5
727
  8
PATTERN_FILL
  6
STYLE_05
 62
     7
 10
243.17364100495041
 20
-12.12334146166569
 30
0.0
  0
VERTEX
  5
728
  8
PATTERN_FILL
  6
STYLE_05
 62
     7
 10
243.0685823337347
 20
-11.85706051843877
 30
0.0
  0
VERTEX
  5
729
  8
PATTERN_FILL
  6
STYLE_05
 62
     7
 10
242.9630842635211
 20
-11.591390779359161
 30
0.0
  0
VERTEX
  5
72A
  8
PATTERN_FILL
  6
STYLE_05
 62
     7
 10
242.85714679430939
 20
-11.326332244426849
 30
0.0
  0
VERTEX
  5
72B
  8
PATTERN_FILL
  6
STYLE_05
 62
     7
 10
242.75076992609971
 20
-11.061884913641849
 30
0.0
  0
VERTEX
  5
72C
  8
PATTERN_FILL
  6
STYLE_05
 62
     7
 10
242.643953658892
 20
-10.79804878700417
 30
0.0
  0
VERTEX
  5
72D
  8
PATTERN_FILL
  6
STYLE_05
 62
     7
 10
242.53669799268641
 20
-10.534823864513781
 30
0.0
  0
VERTEX
  5
72E
  8
PATTERN_FILL
  6
STYLE_05
 62
     7
 10
242.42900292748271
 20
-10.272210146170719
 30
0.0
  0
VERTEX
  5
72F
  8
PATTERN_FILL
  6
STYLE_05
 62
     7
 10
242.32086846328099
 20
-10.01020763197493
 30
0.0
  0
VERTEX
  5
730
  8
PATTERN_FILL
  6
STYLE_05
 62
     7
 10
242.21229460008129
 20
-9.7488163219264834
 30
0.0
  0
VERTEX
  5
731
  8
PATTERN_FILL
  6
STYLE_05
 62
     7
 10
242.1032813378836
 20
-9.4880362160253071
 30
0.0
  0
VERTEX
  5
732
  8
PATTERN_FILL
  6
STYLE_05
 62
     7
 10
241.99382867668791
 20
-9.2278673142714904
 30
0.0
  0
VERTEX
  5
733
  8
PATTERN_FILL
  6
STYLE_05
 62
     7
 10
241.88393661649411
 20
-8.9683096166649534
 30
0.0
  0
VERTEX
  5
734
  8
PATTERN_FILL
  6
STYLE_05
 62
     7
 10
241.7736051573024
 20
-8.7093631232057191
 30
0.0
  0
VERTEX
  5
735
  8
PATTERN_FILL
  6
STYLE_05
 62
     7
 10
241.6628342991126
 20
-8.4510278338938178
 30
0.0
  0
VERTEX
  5
736
  8
PATTERN_FILL
  6
STYLE_05
 62
     7
 10
241.5516240419249
 20
-8.1933037487291926
 30
0.0
  0
VERTEX
  5
737
  8
PATTERN_FILL
  6
STYLE_05
 62
     7
 10
241.43997438573911
 20
-7.9361908677118711
 30
0.0
  0
VERTEX
  5
738
  8
PATTERN_FILL
  6
STYLE_05
 62
     7
 10
241.3278853305554
 20
-7.6796891908418852
 30
0.0
  0
VERTEX
  5
739
  8
PATTERN_FILL
  6
STYLE_05
 62
     7
 10
241.21535687637359
 20
-7.423798718119202
 30
0.0
  0
VERTEX
  5
73A
  8
PATTERN_FILL
  6
STYLE_05
 62
     7
 10
241.10238902319381
 20
-7.1685194495437932
 30
0.0
  0
VERTEX
  5
73B
  8
PATTERN_FILL
  6
STYLE_05
 62
     7
 10
240.98898177101611
 20
-6.9138513851157191
 30
0.0
  0
VERTEX
  5
73C
  8
PATTERN_FILL
  6
STYLE_05
 62
     7
 10
240.87513511984019
 20
-6.6597945248349504
 30
0.0
  0
VERTEX
  5
73D
  8
PATTERN_FILL
  6
STYLE_05
 62
     7
 10
240.76084906966639
 20
-6.406348868701456
 30
0.0
  0
VERTEX
  5
73E
  8
PATTERN_FILL
  6
STYLE_05
 62
     7
 10
240.64612362049459
 20
-6.153514416715324
 30
0.0
  0
VERTEX
  5
73F
  8
PATTERN_FILL
  6
STYLE_05
 62
     7
 10
240.53095877232479
 20
-5.901291168876468
 30
0.0
  0
VERTEX
  5
740
  8
PATTERN_FILL
  6
STYLE_05
 62
     7
 10
240.415354525157
 20
-5.649679125184945
 30
0.0
  0
VERTEX
  5
741
  8
PATTERN_FILL
  6
STYLE_05
 62
     7
 10
240.415354525157
 20
-5.649679125184945
 30
0.0
  0
SEQEND
  5
742
  8
PATTERN_FILL
  6
STYLE_05
 62
     7
  0
ARC
  5
FA
  8
PATTERN_FILL
  6
STYLE_05
 62
     7
 10
227.6675435440338
 20
-28.372963439888789
 30
0.0
 40
20.000000000000139
 50
9.9999999999993765
 51
16.49580184541702
  0
LINE
  5
FB
  8
PATTERN_FILL
  6
STYLE_05
 62
     7
 10
252.12216607596091
 20
-2.701508492302366
 30
0.0
 11
254.2026630673279
 21
-3.2186046378479309
 31
0.0
  0
POLYLINE
  5
FC
  8
PATTERN_FILL
  6
STYLE_05
 62
     7
 66
     1
 10
0.0
 20
0.0
 30
0.0
 70
   128
  0
VERTEX
  5
743
  8
PATTERN_FILL
  6
STYLE_05
 62
     7
 10
254.01163389753501
 20
-21.73603661119807
 30
0.0
  0
VERTEX
  5
744
  8
PATTERN_FILL
  6
STYLE_05
 62
     7
 10
253.9950274883418
 20
-21.433343823974099
 30
0.0
  0
VERTEX
  5
745
  8
PATTERN_FILL
  6
STYLE_05
 62
     7
 10
253.97904302327461
 20
-21.13107509746882
 30
0.0
  0
VERTEX
  5
746
  8
PATTERN_FILL
  6
STYLE_05
 62
     7
 10
253.9636805023334
 20
-20.82923043168233
 30
0.0
  0
VERTEX
  5
747
  8
PATTERN_FILL
  6
STYLE_05
 62
     7
 10
253.94893992551849
 20
-20.527809826614551
 30
0.0
  0
VERTEX
  5
748
  8
PATTERN_FILL
  6
STYLE_05
 62
     7
 10
253.9348212928295
 20
-20.22681328226551
 30
0.0
  0
VERTEX
  5
749
  8
PATTERN_FILL
  6
STYLE_05
 62
     7
 10
253.9213246042666
 20
-19.926240798635259
 30
0.0
  0
VERTEX
  5
74A
  8
PATTERN_FILL
  6
STYLE_05
 62
     7
 10
253.9084498598298
 20
-19.626092375723712
 30
0.0
  0
VERTEX
  5
74B
  8
PATTERN_FILL
  6
STYLE_05
 62
     7
 10
253.8961970595191
 20
-19.326368013530921
 30
0.0
  0
VERTEX
  5
74C
  8
PATTERN_FILL
  6
STYLE_05
 62
     7
 10
253.8845662033344
 20
-19.027067712056859
 30
0.0
  0
VERTEX
  5
74D
  8
PATTERN_FILL
  6
STYLE_05
 62
     7
 10
253.8735572912758
 20
-18.72819147130156
 30
0.0
  0
VERTEX
  5
74E
  8
PATTERN_FILL
  6
STYLE_05
 62
     7
 10
253.86317032334321
 20
-18.429739291265001
 30
0.0
  0
VERTEX
  5
74F
  8
PATTERN_FILL
  6
STYLE_05
 62
     7
 10
253.8534052995368
 20
-18.131711171947192
 30
0.0
  0
VERTEX
  5
750
  8
PATTERN_FILL
  6
STYLE_05
 62
     7
 10
253.8442622198564
 20
-17.83410711334809
 30
0.0
  0
VERTEX
  5
751
  8
PATTERN_FILL
  6
STYLE_05
 62
     7
 10
253.8357410843021
 20
-17.536927115467758
 30
0.0
  0
VERTEX
  5
752
  8
PATTERN_FILL
  6
STYLE_05
 62
     7
 10
253.82784189287389
 20
-17.240171178306149
 30
0.0
  0
VERTEX
  5
753
  8
PATTERN_FILL
  6
STYLE_05
 62
     7
 10
253.82056464557169
 20
-16.943839301863299
 30
0.0
  0
VERTEX
  5
754
  8
PATTERN_FILL
  6
STYLE_05
 62
     7
 10
253.81390934239559
 20
-16.64793148613921
 30
0.0
  0
VERTEX
  5
755
  8
PATTERN_FILL
  6
STYLE_05
 62
     7
 10
253.80787598334561
 20
-16.35244773113385
 30
0.0
  0
VERTEX
  5
756
  8
PATTERN_FILL
  6
STYLE_05
 62
     7
 10
253.80246456842161
 20
-16.057388036847211
 30
0.0
  0
VERTEX
  5
757
  8
PATTERN_FILL
  6
STYLE_05
 62
     7
 10
253.7976750976238
 20
-15.762752403279331
 30
0.0
  0
VERTEX
  5
758
  8
PATTERN_FILL
  6
STYLE_05
 62
     7
 10
253.79350757095199
 20
-15.468540830430181
 30
0.0
  0
VERTEX
  5
759
  8
PATTERN_FILL
  6
STYLE_05
 62
     7
 10
253.7899619884063
 20
-15.174753318299789
 30
0.0
  0
VERTEX
  5
75A
  8
PATTERN_FILL
  6
STYLE_05
 62
     7
 10
253.78703834998649
 20
-14.881389866888149
 30
0.0
  0
VERTEX
  5
75B
  8
PATTERN_FILL
  6
STYLE_05
 62
     7
 10
253.78473665569291
 20
-14.58845047619524
 30
0.0
  0
VERTEX
  5
75C
  8
PATTERN_FILL
  6
STYLE_05
 62
     7
 10
253.7830569055254
 20
-14.29593514622109
 30
0.0
  0
VERTEX
  5
75D
  8
PATTERN_FILL
  6
STYLE_05
 62
     7
 10
253.78199909948401
 20
-14.00384387696567
 30
0.0
  0
VERTEX
  5
75E
  8
PATTERN_FILL
  6
STYLE_05
 62
     7
 10
253.78156323756861
 20
-13.712176668428979
 30
0.0
  0
VERTEX
  5
75F
  8
PATTERN_FILL
  6
STYLE_05
 62
     7
 10
253.78174931977929
 20
-13.42093352061104
 30
0.0
  0
VERTEX
  5
760
  8
PATTERN_FILL
  6
STYLE_05
 62
     7
 10
253.78255734611599
 20
-13.13011443351183
 30
0.0
  0
VERTEX
  5
761
  8
PATTERN_FILL
  6
STYLE_05
 62
     7
 10
253.7839873165789
 20
-12.83971940713138
 30
0.0
  0
VERTEX
  5
762
  8
PATTERN_FILL
  6
STYLE_05
 62
     7
 10
253.78603923116779
 20
-12.54974844146969
 30
0.0
  0
VERTEX
  5
763
  8
PATTERN_FILL
  6
STYLE_05
 62
     7
 10
253.78871308988269
 20
-12.26020153652672
 30
0.0
  0
VERTEX
  5
764
  8
PATTERN_FILL
  6
STYLE_05
 62
     7
 10
253.79200889272369
 20
-11.971078692302511
 30
0.0
  0
VERTEX
  5
765
  8
PATTERN_FILL
  6
STYLE_05
 62
     7
 10
253.79592663969089
 20
-11.68237990879703
 30
0.0
  0
VERTEX
  5
766
  8
PATTERN_FILL
  6
STYLE_05
 62
     7
 10
253.8004663307841
 20
-11.394105186010281
 30
0.0
  0
VERTEX
  5
767
  8
PATTERN_FILL
  6
STYLE_05
 62
     7
 10
253.8056279660033
 20
-11.10625452394228
 30
0.0
  0
VERTEX
  5
768
  8
PATTERN_FILL
  6
STYLE_05
 62
     7
 10
253.8114115453487
 20
-10.818827922593011
 30
0.0
  0
VERTEX
  5
769
  8
PATTERN_FILL
  6
STYLE_05
 62
     7
 10
253.81781706882009
 20
-10.5318253819625
 30
0.0
  0
VERTEX
  5
76A
  8
PATTERN_FILL
  6
STYLE_05
 62
     7
 10
253.8248445364176
 20
-10.24524690205075
 30
0.0
  0
VERTEX
  5
76B
  8
PATTERN_FILL
  6
STYLE_05
 62
     7
 10
253.83249394814121
 20
-9.9590924828577272
 30
0.0
  0
VERTEX
  5
76C
  8
PATTERN_FILL
  6
STYLE_05
 62
     7
 10
253.84076530399079
 20
-9.6733621243834591
 30
0.0
  0
VERTEX
  5
76D
  8
PATTERN_FILL
  6
STYLE_05
 62
     7
 10
253.8496586039665
 20
-9.3880558266279195
 30
0.0
  0
VERTEX
  5
76E
  8
PATTERN_FILL
  6
STYLE_05
 62
     7
 10
253.8591738480682
 20
-9.1031735895911066
 30
0.0
  0
VERTEX
  5
76F
  8
PATTERN_FILL
  6
STYLE_05
 62
     7
 10
253.8693110362961
 20
-8.8187154132730541
 30
0.0
  0
VERTEX
  5
770
  8
PATTERN_FILL
  6
STYLE_05
 62
     7
 10
253.88007016865001
 20
-8.5346812976737283
 30
0.0
  0
VERTEX
  5
771
  8
PATTERN_FILL
  6
STYLE_05
 62
     7
 10
253.89145124513001
 20
-8.2510712427931576
 30
0.0
  0
VERTEX
  5
772
  8
PATTERN_FILL
  6
STYLE_05
 62
     7
 10
253.903454265736
 20
-7.9678852486313474
 30
0.0
  0
VERTEX
  5
773
  8
PATTERN_FILL
  6
STYLE_05
 62
     7
 10
253.91607923046811
 20
-7.685123315188263
 30
0.0
  0
VERTEX
  5
774
  8
PATTERN_FILL
  6
STYLE_05
 62
     7
 10
253.92932613932641
 20
-7.4027854424639372
 30
0.0
  0
VERTEX
  5
775
  8
PATTERN_FILL
  6
STYLE_05
 62
     7
 10
253.94319499231051
 20
-7.120871630458339
 30
0.0
  0
VERTEX
  5
776
  8
PATTERN_FILL
  6
STYLE_05
 62
     7
 10
253.95768578942091
 20
-6.8393818791714676
 30
0.0
  0
VERTEX
  5
777
  8
PATTERN_FILL
  6
STYLE_05
 62
     7
 10
253.9727985306574
 20
-6.5583161886033556
 30
0.0
  0
VERTEX
  5
778
  8
PATTERN_FILL
  6
STYLE_05
 62
     7
 10
253.98853321601979
 20
-6.2776745587539722
 30
0.0
  0
VERTEX
  5
779
  8
PATTERN_FILL
  6
STYLE_05
 62
     7
 10
254.00488984550839
 20
-5.9974569896233438
 30
0.0
  0
VERTEX
  5
77A
  8
PATTERN_FILL
  6
STYLE_05
 62
     7
 10
254.021868419123
 20
-5.7176634812114733
 30
0.0
  0
VERTEX
  5
77B
  8
PATTERN_FILL
  6
STYLE_05
 62
     7
 10
254.0394689368637
 20
-5.4382940335183321
 30
0.0
  0
VERTEX
  5
77C
  8
PATTERN_FILL
  6
STYLE_05
 62
     7
 10
254.0576913987305
 20
-5.1593486465439451
 30
0.0
  0
VERTEX
  5
77D
  8
PATTERN_FILL
  6
STYLE_05
 62
     7
 10
254.07653580472331
 20
-4.8808273202882893
 30
0.0
  0
VERTEX
  5
77E
  8
PATTERN_FILL
  6
STYLE_05
 62
     7
 10
254.09600215484221
 20
-4.602730054751361
 30
0.0
  0
VERTEX
  5
77F
  8
PATTERN_FILL
  6
STYLE_05
 62
     7
 10
254.11609044908721
 20
-4.3250568499331914
 30
0.0
  0
VERTEX
  5
780
  8
PATTERN_FILL
  6
STYLE_05
 62
     7
 10
254.1368006874583
 20
-4.0478077058337467
 30
0.0
  0
VERTEX
  5
781
  8
PATTERN_FILL
  6
STYLE_05
 62
     7
 10
254.15813286995541
 20
-3.7709826224530612
 30
0.0
  0
VERTEX
  5
782
  8
PATTERN_FILL
  6
STYLE_05
 62
     7
 10
254.18008699657861
 20
-3.494581599791132
 30
0.0
  0
VERTEX
  5
783
  8
PATTERN_FILL
  6
STYLE_05
 62
     7
 10
254.2026630673279
 20
-3.2186046378479309
 30
0.0
  0
VERTEX
  5
784
  8
PATTERN_FILL
  6
STYLE_05
 62
     7
 10
254.2026630673279
 20
-3.2186046378479309
 30
0.0
  0
SEQEND
  5
785
  8
PATTERN_FILL
  6
STYLE_05
 62
     7
  0
ARC
  5
140
  8
PATTERN_FILL
  6
STYLE_05
 62
     7
 10
273.9535079356076
 20
-20.211499089543079
 30
0.0
 40
19.999999999999879
 50
183.50419815458281
 51
190.0000000000004
  0
ARC
  5
141
  8
PATTERN_FILL
  6
STYLE_05
 62
     7
 10
247.92368008955921
 20
-7.920116012344236
 30
0.0
 40
1.9999999999999361
 50
296.55884858649102
 51
263.44115141350278
  0
ARC
  5
142
  8
PATTERN_FILL
  6
STYLE_05
 62
     7
 10
244.63267475644781
 20
-12.33934195187862
 30
0.0
 40
3.9109361935367151
 50
12.064309007414259
 51
38.456972558368321
  0
ARC
  5
143
  8
PATTERN_FILL
  6
STYLE_05
 62
     7
 10
252.5276778052789
 20
-10.94723990159409
 30
0.0
 40
3.9109361935367959
 50
161.5430274416324
 51
187.93569099258599
  0
LINE
  5
144
  8
PATTERN_FILL
  6
STYLE_05
 62
     7
 10
248.4572325417476
 20
-11.52191938256766
 30
0.0
 11
252.25144522374489
 21
-33.039968785741728
 31
0.0
  0
LINE
  5
145
  8
PATTERN_FILL
  6
STYLE_05
 62
     7
 10
248.65419409235011
 20
-11.487189747034281
 30
0.0
 11
252.44840677434749
 21
-33.005239150208361
 31
0.0
  0
LINE
  5
146
  8
PATTERN_FILL
  6
STYLE_05
 62
     7
 10
281.8293474334431
 20
-7.0521250715335952
 30
0.0
 11
282.43711605527761
 21
-10.498952207076339
 31
0.0
  0
ARC
  5
147
  8
PATTERN_FILL
  6
STYLE_05
 62
     7
 10
272.86581195423508
 20
38.092656137997238
 30
0.0
 40
49.525289133488712
 50
247.40375355909759
 51
281.14315062258919
  0
ARC
  5
148
  8
PATTERN_FILL
  6
STYLE_05
 62
     7
 10
272.2580433324008
 20
41.539483273539993
 30
0.0
 40
49.525289133488741
 50
248.49215468475219
 51
248.49218931112
  0
ARC
  5
149
  8
PATTERN_FILL
  6
STYLE_05
 62
     7
 10
272.2580433324008
 20
41.539483273539993
 30
0.0
 40
49.525289133488677
 50
273.27077655216613
 51
281.14315062258908
  0
LINE
  5
14A
  8
PATTERN_FILL
  6
STYLE_05
 62
     7
 10
269.79974861636998
 20
9.1044111038611391
 30
0.0
 11
270.44224687373759
 21
5.4606224177160518
 31
0.0
  0
LINE
  5
14B
  8
PATTERN_FILL
  6
STYLE_05
 62
     7
 10
270.44224687373759
 20
5.4606224177160518
 30
0.0
 11
253.20811119602399
 21
2.4217793085447559
 31
0.0
  0
LINE
  5
14C
  8
PATTERN_FILL
  6
STYLE_05
 62
     7
 10
274.30228298289597
 20
-3.473496604148778
 30
0.0
 11
275.08369978239722
 21
-7.9051314927037879
 31
0.0
  0
LINE
  5
14D
  8
PATTERN_FILL
  6
STYLE_05
 62
     7
 10
263.69631376560392
 20
4.2711324006975531
 30
0.0
 11
264.92498415602461
 21
-2.6970036467977812
 31
0.0
  0
LINE
  5
14E
  8
PATTERN_FILL
  6
STYLE_05
 62
     7
 10
259.7570827535551
 20
3.5765396900298461
 30
0.0
 11
260.6684972118245
 21
-1.592348557289454
 31
0.0
  0
ARC
  5
14F
  8
PATTERN_FILL
  6
STYLE_05
 62
     7
 10
272.92225401791848
 20
36.871226435151407
 30
0.0
 40
40.368318729692263
 50
240.9230362156344
 51
271.95909185956992
  0
LINE
  5
150
  8
PATTERN_FILL
  6
STYLE_05
 62
     7
 10
256.2588095934633
 20
26.42589375851222
 30
0.0
 11
252.7588095934633
 21
20.363715932021169
 31
0.0
  0
LINE
  5
151
  8
PATTERN_FILL
  6
STYLE_05
 62
     7
 10
243.2325301518346
 20
25.863715932021162
 30
0.0
 11
246.7325301518346
 21
31.92589375851222
 31
0.0
  0
LINE
  5
152
  8
PATTERN_FILL
  6
STYLE_05
 62
     7
 10
256.2588095934633
 20
26.42589375851222
 30
0.0
 11
246.7325301518346
 21
31.92589375851222
 31
0.0
  0
LINE
  5
153
  8
PATTERN_FILL
  6
STYLE_05
 62
     7
 10
242.5477767653432
 20
23.127688275962811
 30
0.0
 11
243.90369983976771
 21
25.47621593202113
 31
0.0
  0
LINE
  5
154
  8
PATTERN_FILL
  6
STYLE_05
 62
     7
 10
252.08763990553041
 20
20.751215932021161
 30
0.0
 11
250.73579556915351
 21
18.409752857491888
 31
0.0
  0
LINE
  5
155
  8
PATTERN_FILL
  6
STYLE_05
 62
     7
 10
243.2325301518346
 20
25.863715932021162
 30
0.0
 11
252.7674698475013
 21
20.35871593202117
 31
0.0
  0
LINE
  5
156
  8
PATTERN_FILL
  6
STYLE_05
 62
     7
 10
248.94089493148491
 20
30.650893758512179
 30
0.0
 11
301.44089493148488
 21
121.5835611558782
 31
0.0
  0
LINE
  5
157
  8
PATTERN_FILL
  6
STYLE_05
 62
     7
 10
306.55044481381321
 20
118.6335611558782
 30
0.0
 11
254.05044481381319
 21
27.700893758512201
 31
0.0
  0
LINE
  5
158
  8
PATTERN_FILL
  6
STYLE_05
 62
     7
 10
307.89278418967888
 20
117.85856115587821
 30
0.0
 11
300.0985555556191
 21
122.35856115587831
 31
0.0
  0
LINE
  5
159
  8
PATTERN_FILL
  6
STYLE_05
 62
     7
 10
314.23919435119279
 20
128.0508660012915
 30
0.0
 11
305.7521453941053
 21
132.95086600129139
 31
0.0
  0
LINE
  5
15A
  8
PATTERN_FILL
  6
STYLE_05
 62
     7
 10
300.0985555556191
 20
122.35856115587831
 30
0.0
 11
305.7521453941053
 21
132.95086600129139
 31
0.0
  0
LINE
  5
15B
  8
PATTERN_FILL
  6
STYLE_05
 62
     7
 10
307.89278418967888
 20
117.85856115587821
 30
0.0
 11
314.23919435119279
 21
128.0508660012915
 31
0.0
  0
LINE
  5
15C
  8
PATTERN_FILL
  6
STYLE_05
 62
     7
 10
323.23919435119279
 20
143.63932326941139
 30
0.0
 11
314.75214539410518
 21
148.5393232694114
 31
0.0
  0
LINE
  5
15D
  8
PATTERN_FILL
  6
STYLE_05
 62
     7
 10
305.7521453941053
 20
132.95086600129139
 30
0.0
 11
320.85415749552902
 21
159.10831825747709
 31
0.0
  0
LINE
  5
15E
  8
PATTERN_FILL
  6
STYLE_05
 62
     7
 10
314.23919435119279
 20
128.0508660012915
 30
0.0
 11
328.7596378794741
 21
153.20101194070941
 31
0.0
  0
LINE
  5
15F
  8
PATTERN_FILL
  6
STYLE_05
 62
     7
 10
276.31589493148488
 20
78.0657846157102
 30
0.0
 11
281.90044481381312
 21
75.938508749305441
 31
0.0
  0
LINE
  5
160
  8
PATTERN_FILL
  6
STYLE_05
 62
     7
 10
277.31589493148488
 20
79.797835423279096
 30
0.0
 11
282.90044481381312
 21
77.670559556874338
 31
0.0
  0
LINE
  5
161
  8
PATTERN_FILL
  6
STYLE_05
 62
     7
 10
278.31589493148488
 20
81.529886230848007
 30
0.0
 11
283.90044481381312
 21
79.402610364443234
 31
0.0
  0
LINE
  5
162
  8
PATTERN_FILL
  6
STYLE_05
 62
     7
 10
279.31589493148488
 20
83.261937038416804
 30
0.0
 11
284.90044481381312
 21
81.134661172012045
 31
0.0
  0
LINE
  5
163
  8
PATTERN_FILL
  6
STYLE_05
 62
     7
 10
280.31589493148488
 20
84.993987845985728
 30
0.0
 11
285.90044481381312
 21
82.866711979580984
 31
0.0
  0
LINE
  5
164
  8
PATTERN_FILL
  6
STYLE_05
 62
     7
 10
281.31589493148488
 20
86.726038653554653
 30
0.0
 11
286.90044481381312
 21
84.598762787149838
 31
0.0
  0
LINE
  5
165
  8
PATTERN_FILL
  6
STYLE_05
 62
     7
 10
282.31589493148488
 20
88.458089461123492
 30
0.0
 11
287.90044481381312
 21
86.330813594718705
 31
0.0
  0
LINE
  5
166
  8
PATTERN_FILL
  6
STYLE_05
 62
     7
 10
283.31589493148488
 20
90.19014026869236
 30
0.0
 11
288.90044481381312
 21
88.062864402287602
 31
0.0
  0
LINE
  5
167
  8
PATTERN_FILL
  6
STYLE_05
 62
     7
 10
284.31589493148488
 20
91.922191076261285
 30
0.0
 11
289.90044481381312
 21
89.794915209856526
 31
0.0
  0
LINE
  5
168
  8
PATTERN_FILL
  6
STYLE_05
 62
     7
 10
285.31589493148488
 20
93.654241883830124
 30
0.0
 11
290.90044481381312
 21
91.526966017425309
 31
0.0
  0
LINE
  5
169
  8
PATTERN_FILL
  6
STYLE_05
 62
     7
 10
286.31589493148488
 20
95.386292691399007
 30
0.0
 11
291.90044481381312
 21
93.259016824994234
 31
0.0
  0
LINE
  5
16A
  8
PATTERN_FILL
  6
STYLE_05
 62
     7
 10
287.31589493148488
 20
97.118343498967917
 30
0.0
 11
292.90044481381312
 21
94.991067632563116
 31
0.0
  0
LINE
  5
16B
  8
PATTERN_FILL
  6
STYLE_05
 62
     7
 10
288.31589493148488
 20
98.850394306536728
 30
0.0
 11
293.90044481381312
 21
96.723118440131984
 31
0.0
  0
LINE
  5
16C
  8
PATTERN_FILL
  6
STYLE_05
 62
     7
 10
289.31589493148482
 20
100.5824451141056
 30
0.0
 11
294.90044481381312
 21
98.455169247700866
 31
0.0
  0
LINE
  5
16D
  8
PATTERN_FILL
  6
STYLE_05
 62
     7
 10
290.31589493148488
 20
102.31449592167451
 30
0.0
 11
295.90044481381312
 21
100.18722005526971
 31
0.0
  0
LINE
  5
16E
  8
PATTERN_FILL
  6
STYLE_05
 62
     7
 10
291.31589493148488
 20
104.0465467292433
 30
0.0
 11
296.90044481381312
 21
101.9192708628386
 31
0.0
  0
LINE
  5
16F
  8
PATTERN_FILL
  6
STYLE_05
 62
     7
 10
292.31589493148488
 20
105.7785975368123
 30
0.0
 11
297.90044481381312
 21
103.6513216704075
 31
0.0
  0
LINE
  5
170
  8
PATTERN_FILL
  6
STYLE_05
 62
     7
 10
293.31589493148488
 20
107.5106483443811
 30
0.0
 11
298.90044481381318
 21
105.38337247797639
 31
0.0
  0
LINE
  5
171
  8
PATTERN_FILL
  6
STYLE_05
 62
     7
 10
294.31589493148488
 20
109.24269915195001
 30
0.0
 11
299.90044481381312
 21
107.11542328554521
 31
0.0
  0
LINE
  5
172
  8
PATTERN_FILL
  6
STYLE_05
 62
     7
 10
295.31589493148488
 20
110.9747499595189
 30
0.0
 11
300.90044481381312
 21
108.8474740931141
 31
0.0
  0
LINE
  5
173
  8
PATTERN_FILL
  6
STYLE_05
 62
     7
 10
296.31589493148488
 20
112.7068007670878
 30
0.0
 11
301.90044481381312
 21
110.579524900683
 31
0.0
  0
LINE
  5
174
  8
PATTERN_FILL
  6
STYLE_05
 62
     7
 10
297.31589493148488
 20
114.4388515746566
 30
0.0
 11
302.90044481381312
 21
112.31157570825179
 31
0.0
  0
LINE
  5
175
  8
PATTERN_FILL
  6
STYLE_05
 62
     7
 10
298.31589493148488
 20
116.17090238222551
 30
0.0
 11
303.90044481381312
 21
114.0436265158208
 31
0.0
  0
LINE
  5
176
  8
PATTERN_FILL
  6
STYLE_05
 62
     7
 10
299.31589493148488
 20
117.9029531897944
 30
0.0
 11
304.90044481381312
 21
115.7756773233896
 31
0.0
  0
LINE
  5
177
  8
PATTERN_FILL
  6
STYLE_05
 62
     7
 10
300.31589493148488
 20
119.6350039973633
 30
0.0
 11
305.90044481381312
 21
117.5077281309585
 31
0.0
  0
LINE
  5
178
  8
PATTERN_FILL
  6
STYLE_05
 62
     7
 10
227.43349204615791
 20
1.4989792222724809
 30
0.0
 11
233.43349204615799
 21
11.891284067685691
 31
0.0
  0
LINE
  5
179
  8
PATTERN_FILL
  6
STYLE_05
 62
     7
 10
245.5578476991401
 20
4.8912840676857448
 30
0.0
 11
239.5578476991401
 21
-5.5010207777275184
 31
0.0
  0
LINE
  5
17A
  8
PATTERN_FILL
  6
STYLE_05
 62
     7
 10
238.01861721459869
 20
-5.7670461815119154
 30
0.0
 11
227.9727225306992
 21
0.0329538184880391
 31
0.0
  0
LINE
  5
17B
  8
PATTERN_FILL
  6
STYLE_05
 62
     7
 10
238.51861721459869
 20
-4.9010207777274948
 30
0.0
 11
238.01861721459869
 21
-5.7670461815119154
 31
0.0
  0
LINE
  5
17C
  8
PATTERN_FILL
  6
STYLE_05
 62
     7
 10
227.9727225306992
 20
0.0329538184880391
 30
0.0
 11
228.47272253069929
 21
0.8989792222724587
 31
0.0
  0
LINE
  5
17D
  8
PATTERN_FILL
  6
STYLE_05
 62
     7
 10
227.43349204615791
 20
1.4989792222724809
 30
0.0
 11
239.5578476991401
 21
-5.5010207777275184
 31
0.0
  0
LINE
  5
17E
  8
PATTERN_FILL
  6
STYLE_05
 62
     7
 10
245.5578476991401
 20
4.8912840676857448
 30
0.0
 11
233.43349204615799
 21
11.891284067685691
 31
0.0
  0
LINE
  5
17F
  8
PATTERN_FILL
  6
STYLE_05
 62
     7
 10
233.86650474805
 20
11.64128406768568
 30
0.0
 11
236.27526875018529
 21
15.81338570282699
 31
0.0
  0
LINE
  5
180
  8
PATTERN_FILL
  6
STYLE_05
 62
     7
 10
247.52479445740559
 20
9.2981357887843181
 30
0.0
 11
245.12483499724789
 21
5.1412840676857448
 31
0.0
  0
CIRCLE
  5
181
  8
PATTERN_FILL
  6
STYLE_05
 62
     7
 10
243.74999999971541
 20
15.750000000172429
 30
0.0
 40
7.4749999999998131
  0
CIRCLE
  5
182
  8
PATTERN_FILL
  6
STYLE_05
 62
     7
 10
243.74999999971541
 20
15.750000000172429
 30
0.0
 40
6.5999999999999872
  0
LINE
  5
183
  8
PATTERN_FILL
  6
STYLE_05
 62
     7
 10
329.3462451589117
 20
150.21704555278509
 30
0.0
 11
338.47124515876169
 21
166.02200917159121
 31
0.0
  0
LINE
  5
184
  8
PATTERN_FILL
  6
STYLE_05
 62
     7
 10
316.9993841319116
 20
165.13165494002899
 30
0.0
 11
320.50638402823648
 21
171.20595694260251
 31
0.0
  0
ARC
  5
185
  8
PATTERN_FILL
  6
STYLE_05
 62
     7
 10
322.21021196003892
 20
151.61315482534309
 30
0.0
 40
20.019411788534949
 50
72.96643352930262
 51
93.015348125790865
  0
ARC
  5
186
  8
PATTERN_FILL
  6
STYLE_05
 62
     7
 10
307.6579817176297
 20
112.1139319088219
 30
0.0
 40
62.092978653478283
 50
60.248190345821968
 51
70.803669009626773
  0
ARC
  5
187
  8
PATTERN_FILL
  6
STYLE_05
 62
     7
 10
334.81916246268088
 20
173.45249772604029
 30
0.0
 40
20.01941178853491
 50
206.98465187420879
 51
227.03356647069751
  0
ARC
  5
188
  8
PATTERN_FILL
  6
STYLE_05
 62
     7
 10
361.75037781692811
 20
205.80471025594761
 30
0.0
 40
62.092978653478241
 50
229.1963309903733
 51
239.75180965417809
  0
ARC
  5
189
  8
PATTERN_FILL
  6
STYLE_05
 62
     7
 10
321.19920435126409
 20
170.80595694260251
 30
0.0
 40
0.7999999999999776
 50
93.015348125777223
 51
149.99999999999571
  0
ARC
  5
18A
  8
PATTERN_FILL
  6
STYLE_05
 62
     7
 10
317.69220445493909
 20
164.73165494002899
 30
0.0
 40
0.7999999999999645
 50
149.99999999999571
 51
206.98465187421431
  0
LINE
  5
18B
  8
PATTERN_FILL
  6
STYLE_05
 62
     7
 10
329.3462451589117
 20
150.21704555278509
 30
0.0
 11
327.61419435134269
 21
151.21704555278509
 31
0.0
  0
LINE
  5
18C
  8
PATTERN_FILL
  6
STYLE_05
 62
     7
 10
331.3661181399894
 20
163.71556818084741
 30
0.0
 11
332.91611813998958
 21
166.40024693257919
 31
0.0
  0
LINE
  5
18D
  8
PATTERN_FILL
  6
STYLE_05
 62
     7
 10
321.70813996854997
 20
168.88745928952289
 30
0.0
 11
322.41163991656242
 21
170.10595694260249
 31
0.0
  0
ARC
  5
18E
  8
PATTERN_FILL
  6
STYLE_05
 62
     7
 10
316.17277287938981
 20
135.67956704749719
 30
0.0
 40
34.987137395296223
 50
61.408789523051283
 51
79.728145584863285
  0
ARC
  5
18F
  8
PATTERN_FILL
  6
STYLE_05
 62
     7
 10
376.187283696816
 20
259.01810417962707
 30
0.0
 40
105.3162392495627
 50
238.849287427999
 51
244.81220986805181
  0
LINE
  5
190
  8
PATTERN_FILL
  6
STYLE_05
 62
     7
 10
328.9161181396895
 20
159.47204370178409
 30
0.0
 11
327.36611813968949
 21
156.78736495005231
 31
0.0
  0
LINE
  5
191
  8
PATTERN_FILL
  6
STYLE_05
 62
     7
 10
319.60813996824987
 20
165.2501525931086
 30
0.0
 11
318.90464002023748
 21
164.031654940029
 31
0.0
  0
ARC
  5
192
  8
PATTERN_FILL
  6
STYLE_05
 62
     7
 10
345.59933471140022
 20
186.64786723260639
 30
0.0
 40
34.98713739529601
 50
220.2718544151364
 51
238.5912104769485
  0
ARC
  5
193
  8
PATTERN_FILL
  6
STYLE_05
 62
     7
 10
268.79228369807868
 20
73.004507702954385
 30
0.0
 40
105.3162392495627
 50
55.187790131948162
 51
61.150712572000998
  0
LINE
  5
194
  8
PATTERN_FILL
  6
STYLE_05
 62
     7
 10
275.31589493148488
 20
76.333733808141375
 30
0.0
 11
280.90044481381312
 21
74.206457941736616
 31
0.0
  0
LINE
  5
195
  8
PATTERN_FILL
  6
STYLE_05
 62
     7
 10
274.31589493148488
 20
74.601683000572464
 30
0.0
 11
279.90044481381312
 21
72.474407134167706
 31
0.0
  0
LINE
  5
196
  8
PATTERN_FILL
  6
STYLE_05
 62
     7
 10
273.31589493148488
 20
72.869632193003582
 30
0.0
 11
278.90044481381312
 21
70.742356326598809
 31
0.0
  0
LINE
  5
197
  8
PATTERN_FILL
  6
STYLE_05
 62
     7
 10
272.31589493148488
 20
71.137581385434729
 30
0.0
 11
277.90044481381312
 21
69.01030551902997
 31
0.0
  0
LINE
  5
198
  8
PATTERN_FILL
  6
STYLE_05
 62
     7
 10
271.31589493148488
 20
69.405530577865846
 30
0.0
 11
276.90044481381312
 21
67.278254711461074
 31
0.0
  0
LINE
  5
199
  8
PATTERN_FILL
  6
STYLE_05
 62
     7
 10
270.31589493148488
 20
67.67347977029695
 30
0.0
 11
275.90044481381312
 21
65.546203903892163
 31
0.0
  0
LINE
  5
19A
  8
PATTERN_FILL
  6
STYLE_05
 62
     7
 10
269.31589493148488
 20
65.94142896272804
 30
0.0
 11
274.90044481381312
 21
63.814153096323338
 31
0.0
  0
LINE
  5
19B
  8
PATTERN_FILL
  6
STYLE_05
 62
     7
 10
268.31589493148488
 20
64.209378155159214
 30
0.0
 11
273.90044481381312
 21
62.082102288754442
 31
0.0
  0
LINE
  5
19C
  8
PATTERN_FILL
  6
STYLE_05
 62
     7
 10
267.31589493148488
 20
62.477327347590332
 30
0.0
 11
272.90044481381312
 21
60.350051481185531
 31
0.0
  0
LINE
  5
19D
  8
PATTERN_FILL
  6
STYLE_05
 62
     7
 10
266.31589493148488
 20
60.745276540021422
 30
0.0
 11
271.90044481381312
 21
58.618000673616713
 31
0.0
  0
LINE
  5
19E
  8
PATTERN_FILL
  6
STYLE_05
 62
     7
 10
265.31589493148488
 20
59.013225732452568
 30
0.0
 11
270.90044481381312
 21
56.88594986604781
 31
0.0
  0
LINE
  5
19F
  8
PATTERN_FILL
  6
STYLE_05
 62
     7
 10
264.31589493148488
 20
57.281174924883693
 30
0.0
 11
269.90044481381312
 21
55.153899058478899
 31
0.0
  0
LINE
  5
1A0
  8
PATTERN_FILL
  6
STYLE_05
 62
     7
 10
263.31589493148488
 20
55.549124117314783
 30
0.0
 11
268.90044481381312
 21
53.421848250910081
 31
0.0
  0
LINE
  5
1A1
  8
PATTERN_FILL
  6
STYLE_05
 62
     7
 10
262.31589493148488
 20
53.81707330974595
 30
0.0
 11
267.90044481381312
 21
51.689797443341178
 31
0.0
  0
LINE
  5
1A2
  8
PATTERN_FILL
  6
STYLE_05
 62
     7
 10
261.31589493148488
 20
52.085022502177068
 30
0.0
 11
266.90044481381312
 21
49.957746635772288
 31
0.0
  0
LINE
  5
1A3
  8
PATTERN_FILL
  6
STYLE_05
 62
     7
 10
260.31589493148488
 20
50.352971694608151
 30
0.0
 11
265.90044481381312
 21
48.225695828203442
 31
0.0
  0
LINE
  5
1A4
  8
PATTERN_FILL
  6
STYLE_05
 62
     7
 10
259.31589493148488
 20
48.620920887039311
 30
0.0
 11
264.90044481381312
 21
46.493645020634553
 31
0.0
  0
LINE
  5
1A5
  8
PATTERN_FILL
  6
STYLE_05
 62
     7
 10
258.31589493148488
 20
46.888870079470422
 30
0.0
 11
263.90044481381312
 21
44.761594213065649
 31
0.0
  0
LINE
  5
1A6
  8
PATTERN_FILL
  6
STYLE_05
 62
     7
 10
257.31589493148488
 20
45.156819271901533
 30
0.0
 11
262.90044481381312
 21
43.02954340549681
 31
0.0
  0
LINE
  5
1A7
  8
PATTERN_FILL
  6
STYLE_05
 62
     7
 10
256.31589493148488
 20
43.424768464332679
 30
0.0
 11
261.90044481381312
 21
41.297492597927913
 31
0.0
  0
LINE
  5
1A8
  8
PATTERN_FILL
  6
STYLE_05
 62
     7
 10
255.31589493148491
 20
41.69271765676379
 30
0.0
 11
260.90044481381312
 21
39.565441790359017
 31
0.0
  0
LINE
  5
1A9
  8
PATTERN_FILL
  6
STYLE_05
 62
     7
 10
254.31589493148491
 20
39.960666849194901
 30
0.0
 11
259.90044481381312
 21
37.833390982790171
 31
0.0
  0
LINE
  5
1AA
  8
PATTERN_FILL
  6
STYLE_05
 62
     7
 10
253.31589493148491
 20
38.228616041626047
 30
0.0
 11
258.90044481381312
 21
36.101340175221281
 31
0.0
  0
LINE
  5
1AB
  8
PATTERN_FILL
  6
STYLE_05
 62
     7
 10
252.31589493148491
 20
36.496565234057158
 30
0.0
 11
257.90044481381312
 21
34.369289367652392
 31
0.0
  0
LINE
  5
1AC
  8
PATTERN_FILL
  6
STYLE_05
 62
     7
 10
251.31589493148491
 20
34.764514426488269
 30
0.0
 11
256.90044481381312
 21
32.637238560083553
 31
0.0
  0
LINE
  5
1AD
  8
PATTERN_FILL
  6
STYLE_05
 62
     7
 10
250.31589493148491
 20
33.032463618919422
 30
0.0
 11
255.9004448138131
 21
30.905187752514649
 31
0.0
  0
LINE
  5
1AE
  8
PATTERN_FILL
  6
STYLE_05
 62
     7
 10
249.31589493148491
 20
31.30041281135053
 30
0.0
 11
254.9004448138131
 21
29.17313694494576
 31
0.0
  0
LINE
  5
1AF
  8
PATTERN_FILL
  6
STYLE_05
 62
     7
 10
202.610091877141
 20
43.543588913158167
 30
0.0
 11
200.9100918771409
 21
40.599102540291099
 31
0.0
  0
LINE
  5
1B0
  8
PATTERN_FILL
  6
STYLE_05
 62
     7
 10
200.8100918771411
 20
40.425897459534163
 30
0.0
 11
199.110091877141
 21
37.481411086667123
 31
0.0
  0
LINE
  5
1B1
  8
PATTERN_FILL
  6
STYLE_05
 62
     7
 10
202.610091877141
 20
43.543588913158167
 30
0.0
 11
210.28745278580851
 21
39.111062525873109
 31
0.0
  0
LINE
  5
1B2
  8
PATTERN_FILL
  6
STYLE_05
 62
     7
 10
199.110091877141
 20
37.481411086667123
 30
0.0
 11
206.78745278580851
 21
33.048884699382
 31
0.0
  0
LINE
  5
1B3
  8
PATTERN_FILL
  6
STYLE_05
 62
     7
 10
216.91472790846689
 20
-8.5938170085990162
 30
0.0
 11
219.7726117409556
 21
-10.24381700859899
 31
0.0
  0
ARC
  5
1B4
  8
PATTERN_FILL
  6
STYLE_05
 62
     7
 10
230.96043391446449
 20
23.13405942196411
 30
0.0
 40
6.9999999999999831
 50
329.99999999999989
 51
271.90898273531718
  0
CIRCLE
  5
1B5
  8
PATTERN_FILL
  6
STYLE_05
 62
     7
 10
230.96043391446449
 20
23.13405942196411
 30
0.0
 40
1.000000000000081
  0
CIRCLE
  5
1B6
  8
PATTERN_FILL
  6
STYLE_05
 62
     7
 10
230.96043391446449
 20
23.13405942196411
 30
0.0
 40
4.2500000000000524
  0
LINE
  5
1B7
  8
PATTERN_FILL
  6
STYLE_05
 62
     7
 10
237.0226117409556
 20
19.63405942196411
 30
0.0
 11
219.7726117409556
 21
-10.24381700859899
 31
0.0
  0
LINE
  5
1B8
  8
PATTERN_FILL
  6
STYLE_05
 62
     7
 10
231.19361700511769
 20
16.137944382441638
 30
0.0
 11
216.91472790846689
 21
-8.5938170085990162
 31
0.0
  0
LINE
  5
1B9
  8
PATTERN_FILL
  6
STYLE_05
 62
     7
 10
229.50036351520831
 20
32.05993522866536
 30
0.0
 11
229.5003537261037
 21
32.059940880407432
 31
0.0
  0
LINE
  5
1BA
  8
PATTERN_FILL
  6
STYLE_05
 62
     7
 10
229.2747030682381
 20
29.928050260497891
 30
0.0
 11
229.50036351520831
 21
32.05993522866536
 31
0.0
  0
POLYLINE
  5
1BB
  8
PATTERN_FILL
  6
STYLE_05
 62
     7
 66
     1
 10
0.0
 20
0.0
 30
0.0
 70
   128
  0
VERTEX
  5
786
  8
PATTERN_FILL
  6
STYLE_05
 62
     7
 10
212.03433350991409
 20
38.213761265004713
 30
0.0
  0
VERTEX
  5
787
  8
PATTERN_FILL
  6
STYLE_05
 62
     7
 10
212.3130919619812
 20
38.094629314358052
 30
0.0
  0
VERTEX
  5
788
  8
PATTERN_FILL
  6
STYLE_05
 62
     7
 10
212.5916646447393
 20
37.976226837325036
 30
0.0
  0
VERTEX
  5
789
  8
PATTERN_FILL
  6
STYLE_05
 62
     7
 10
212.87005155818829
 20
37.858553833905631
 30
0.0
  0
VERTEX
  5
78A
  8
PATTERN_FILL
  6
STYLE_05
 62
     7
 10
213.14825270232839
 20
37.741610304099829
 30
0.0
  0
VERTEX
  5
78B
  8
PATTERN_FILL
  6
STYLE_05
 62
     7
 10
213.42626807715939
 20
37.625396247907631
 30
0.0
  0
VERTEX
  5
78C
  8
PATTERN_FILL
  6
STYLE_05
 62
     7
 10
213.70409768268129
 20
37.509911665329071
 30
0.0
  0
VERTEX
  5
78D
  8
PATTERN_FILL
  6
STYLE_05
 62
     7
 10
213.9817415188943
 20
37.3951565563641
 30
0.0
  0
VERTEX
  5
78E
  8
PATTERN_FILL
  6
STYLE_05
 62
     7
 10
214.25919958579809
 20
37.28113092101276
 30
0.0
  0
VERTEX
  5
78F
  8
PATTERN_FILL
  6
STYLE_05
 62
     7
 10
214.53647188339301
 20
37.167834759275031
 30
0.0
  0
VERTEX
  5
790
  8
PATTERN_FILL
  6
STYLE_05
 62
     7
 10
214.81355841167891
 20
37.05526807115092
 30
0.0
  0
VERTEX
  5
791
  8
PATTERN_FILL
  6
STYLE_05
 62
     7
 10
215.09045917065569
 20
36.943430856640397
 30
0.0
  0
VERTEX
  5
792
  8
PATTERN_FILL
  6
STYLE_05
 62
     7
 10
215.36717416032349
 20
36.83232311574352
 30
0.0
  0
VERTEX
  5
793
  8
PATTERN_FILL
  6
STYLE_05
 62
     7
 10
215.6437033806823
 20
36.721944848460261
 30
0.0
  0
VERTEX
  5
794
  8
PATTERN_FILL
  6
STYLE_05
 62
     7
 10
215.92004683173201
 20
36.61229605479059
 30
0.0
  0
VERTEX
  5
795
  8
PATTERN_FILL
  6
STYLE_05
 62
     7
 10
216.19620451347271
 20
36.50337673473453
 30
0.0
  0
VERTEX
  5
796
  8
PATTERN_FILL
  6
STYLE_05
 62
     7
 10
216.47217642590439
 20
36.395186888292088
 30
0.0
  0
VERTEX
  5
797
  8
PATTERN_FILL
  6
STYLE_05
 62
     7
 10
216.7479625690271
 20
36.287726515463277
 30
0.0
  0
VERTEX
  5
798
  8
PATTERN_FILL
  6
STYLE_05
 62
     7
 10
217.0235629428407
 20
36.180995616248083
 30
0.0
  0
VERTEX
  5
799
  8
PATTERN_FILL
  6
STYLE_05
 62
     7
 10
217.29897754734529
 20
36.074994190646493
 30
0.0
  0
VERTEX
  5
79A
  8
PATTERN_FILL
  6
STYLE_05
 62
     7
 10
217.57420638254089
 20
35.969722238658512
 30
0.0
  0
VERTEX
  5
79B
  8
PATTERN_FILL
  6
STYLE_05
 62
     7
 10
217.8492494484274
 20
35.865179760284143
 30
0.0
  0
VERTEX
  5
79C
  8
PATTERN_FILL
  6
STYLE_05
 62
     7
 10
218.12410674500489
 20
35.761366755523397
 30
0.0
  0
VERTEX
  5
79D
  8
PATTERN_FILL
  6
STYLE_05
 62
     7
 10
218.3987782722734
 20
35.658283224376248
 30
0.0
  0
VERTEX
  5
79E
  8
PATTERN_FILL
  6
STYLE_05
 62
     7
 10
218.6732640302329
 20
35.555929166842731
 30
0.0
  0
VERTEX
  5
79F
  8
PATTERN_FILL
  6
STYLE_05
 62
     7
 10
218.9475640188833
 20
35.454304582922809
 30
0.0
  0
VERTEX
  5
7A0
  8
PATTERN_FILL
  6
STYLE_05
 62
     7
 10
219.2216782382248
 20
35.353409472616534
 30
0.0
  0
VERTEX
  5
7A1
  8
PATTERN_FILL
  6
STYLE_05
 62
     7
 10
219.49560668825711
 20
35.253243835923847
 30
0.0
  0
VERTEX
  5
7A2
  8
PATTERN_FILL
  6
STYLE_05
 62
     7
 10
219.76934936898039
 20
35.153807672844771
 30
0.0
  0
VERTEX
  5
7A3
  8
PATTERN_FILL
  6
STYLE_05
 62
     7
 10
220.04290628039479
 20
35.055100983379333
 30
0.0
  0
VERTEX
  5
7A4
  8
PATTERN_FILL
  6
STYLE_05
 62
     7
 10
220.31627742250001
 20
34.957123767527492
 30
0.0
  0
VERTEX
  5
7A5
  8
PATTERN_FILL
  6
STYLE_05
 62
     7
 10
220.5894627952963
 20
34.859876025289267
 30
0.0
  0
VERTEX
  5
7A6
  8
PATTERN_FILL
  6
STYLE_05
 62
     7
 10
220.86246239878361
 20
34.763357756664661
 30
0.0
  0
VERTEX
  5
7A7
  8
PATTERN_FILL
  6
STYLE_05
 62
     7
 10
221.1352762329617
 20
34.667568961653672
 30
0.0
  0
VERTEX
  5
7A8
  8
PATTERN_FILL
  6
STYLE_05
 62
     7
 10
221.4079042978309
 20
34.5725096402563
 30
0.0
  0
VERTEX
  5
7A9
  8
PATTERN_FILL
  6
STYLE_05
 62
     7
 10
221.68034659339111
 20
34.478179792472531
 30
0.0
  0
VERTEX
  5
7AA
  8
PATTERN_FILL
  6
STYLE_05
 62
     7
 10
221.95260311964219
 20
34.384579418302373
 30
0.0
  0
VERTEX
  5
7AB
  8
PATTERN_FILL
  6
STYLE_05
 62
     7
 10
222.22467387658429
 20
34.291708517745818
 30
0.0
  0
VERTEX
  5
7AC
  8
PATTERN_FILL
  6
STYLE_05
 62
     7
 10
222.49655886421741
 20
34.199567090802901
 30
0.0
  0
VERTEX
  5
7AD
  8
PATTERN_FILL
  6
STYLE_05
 62
     7
 10
222.76825808254139
 20
34.108155137473567
 30
0.0
  0
VERTEX
  5
7AE
  8
PATTERN_FILL
  6
STYLE_05
 62
     7
 10
223.0397715315564
 20
34.017472657757892
 30
0.0
  0
VERTEX
  5
7AF
  8
PATTERN_FILL
  6
STYLE_05
 62
     7
 10
223.31109921126239
 20
33.927519651655807
 30
0.0
  0
VERTEX
  5
7B0
  8
PATTERN_FILL
  6
STYLE_05
 62
     7
 10
223.58224112165939
 20
33.838296119167353
 30
0.0
  0
VERTEX
  5
7B1
  8
PATTERN_FILL
  6
STYLE_05
 62
     7
 10
223.8531972627473
 20
33.749802060292481
 30
0.0
  0
VERTEX
  5
7B2
  8
PATTERN_FILL
  6
STYLE_05
 62
     7
 10
224.1239676345262
 20
33.662037475031241
 30
0.0
  0
VERTEX
  5
7B3
  8
PATTERN_FILL
  6
STYLE_05
 62
     7
 10
224.39455223699611
 20
33.575002363383611
 30
0.0
  0
VERTEX
  5
7B4
  8
PATTERN_FILL
  6
STYLE_05
 62
     7
 10
224.66495107015689
 20
33.488696725349612
 30
0.0
  0
VERTEX
  5
7B5
  8
PATTERN_FILL
  6
STYLE_05
 62
     7
 10
224.93516413400869
 20
33.403120560929203
 30
0.0
  0
VERTEX
  5
7B6
  8
PATTERN_FILL
  6
STYLE_05
 62
     7
 10
225.2051914285515
 20
33.318273870122411
 30
0.0
  0
VERTEX
  5
7B7
  8
PATTERN_FILL
  6
STYLE_05
 62
     7
 10
225.4750329537853
 20
33.234156652929236
 30
0.0
  0
VERTEX
  5
7B8
  8
PATTERN_FILL
  6
STYLE_05
 62
     7
 10
225.74468870971
 20
33.150768909349686
 30
0.0
  0
VERTEX
  5
7B9
  8
PATTERN_FILL
  6
STYLE_05
 62
     7
 10
226.01415869632569
 20
33.068110639383747
 30
0.0
  0
VERTEX
  5
7BA
  8
PATTERN_FILL
  6
STYLE_05
 62
     7
 10
226.2834429136324
 20
32.98618184303141
 30
0.0
  0
VERTEX
  5
7BB
  8
PATTERN_FILL
  6
STYLE_05
 62
     7
 10
226.55254136163001
 20
32.904982520292691
 30
0.0
  0
VERTEX
  5
7BC
  8
PATTERN_FILL
  6
STYLE_05
 62
     7
 10
226.8214540403186
 20
32.824512671167611
 30
0.0
  0
VERTEX
  5
7BD
  8
PATTERN_FILL
  6
STYLE_05
 62
     7
 10
227.09018094969821
 20
32.744772295656112
 30
0.0
  0
VERTEX
  5
7BE
  8
PATTERN_FILL
  6
STYLE_05
 62
     7
 10
227.3587220897688
 20
32.665761393758231
 30
0.0
  0
VERTEX
  5
7BF
  8
PATTERN_FILL
  6
STYLE_05
 62
     7
 10
227.6270774605303
 20
32.58747996547396
 30
0.0
  0
VERTEX
  5
7C0
  8
PATTERN_FILL
  6
STYLE_05
 62
     7
 10
227.89524706198279
 20
32.509928010803321
 30
0.0
  0
VERTEX
  5
7C1
  8
PATTERN_FILL
  6
STYLE_05
 62
     7
 10
228.16323089412629
 20
32.433105529746292
 30
0.0
  0
VERTEX
  5
7C2
  8
PATTERN_FILL
  6
STYLE_05
 62
     7
 10
228.43102895696069
 20
32.357012522302881
 30
0.0
  0
VERTEX
  5
7C3
  8
PATTERN_FILL
  6
STYLE_05
 62
     7
 10
228.69864125048619
 20
32.28164898847308
 30
0.0
  0
VERTEX
  5
7C4
  8
PATTERN_FILL
  6
STYLE_05
 62
     7
 10
228.96606777470259
 20
32.207014928256903
 30
0.0
  0
VERTEX
  5
7C5
  8
PATTERN_FILL
  6
STYLE_05
 62
     7
 10
229.23330852961001
 20
32.133110341654323
 30
0.0
  0
VERTEX
  5
7C6
  8
PATTERN_FILL
  6
STYLE_05
 62
     7
 10
229.50036351520831
 20
32.05993522866536
 30
0.0
  0
VERTEX
  5
7C7
  8
PATTERN_FILL
  6
STYLE_05
 62
     7
 10
229.50036351520831
 20
32.05993522866536
 30
0.0
  0
SEQEND
  5
7C8
  8
PATTERN_FILL
  6
STYLE_05
 62
     7
  0
ARC
  5
1FF
  8
PATTERN_FILL
  6
STYLE_05
 62
     7
 10
220.28745278580851
 20
56.431570601561852
 30
0.0
 40
19.999999999999972
 50
240.0
 51
246.49580184541719
  0
LINE
  5
200
  8
PATTERN_FILL
  6
STYLE_05
 62
     7
 10
224.23379983210239
 20
21.19694973947222
 30
0.0
 11
222.50036351520819
 21
19.935579575683189
 31
0.0
  0
POLYLINE
  5
201
  8
PATTERN_FILL
  6
STYLE_05
 62
     7
 66
     1
 10
0.0
 20
0.0
 30
0.0
 70
   128
  0
VERTEX
  5
7C9
  8
PATTERN_FILL
  6
STYLE_05
 62
     7
 10
208.43797883462111
 20
31.984692245359408
 30
0.0
  0
VERTEX
  5
7CA
  8
PATTERN_FILL
  6
STYLE_05
 62
     7
 10
208.68052935631701
 20
31.802846319673002
 30
0.0
  0
VERTEX
  5
7CB
  8
PATTERN_FILL
  6
STYLE_05
 62
     7
 10
208.9223552506777
 20
31.620796538120629
 30
0.0
  0
VERTEX
  5
7CC
  8
PATTERN_FILL
  6
STYLE_05
 62
     7
 10
209.163456517703
 20
31.43854290070232
 30
0.0
  0
VERTEX
  5
7CD
  8
PATTERN_FILL
  6
STYLE_05
 62
     7
 10
209.40383315739311
 20
31.25608540741807
 30
0.0
  0
VERTEX
  5
7CE
  8
PATTERN_FILL
  6
STYLE_05
 62
     7
 10
209.64348516974789
 20
31.073424058267879
 30
0.0
  0
VERTEX
  5
7CF
  8
PATTERN_FILL
  6
STYLE_05
 62
     7
 10
209.88241255476731
 20
30.890558853251729
 30
0.0
  0
VERTEX
  5
7D0
  8
PATTERN_FILL
  6
STYLE_05
 62
     7
 10
210.12061531245149
 20
30.707489792369639
 30
0.0
  0
VERTEX
  5
7D1
  8
PATTERN_FILL
  6
STYLE_05
 62
     7
 10
210.3580934428004
 20
30.524216875621612
 30
0.0
  0
VERTEX
  5
7D2
  8
PATTERN_FILL
  6
STYLE_05
 62
     7
 10
210.594846945814
 20
30.340740103007612
 30
0.0
  0
VERTEX
  5
7D3
  8
PATTERN_FILL
  6
STYLE_05
 62
     7
 10
210.8308758214923
 20
30.157059474527699
 30
0.0
  0
VERTEX
  5
7D4
  8
PATTERN_FILL
  6
STYLE_05
 62
     7
 10
211.06618006983521
 20
29.973174990181828
 30
0.0
  0
VERTEX
  5
7D5
  8
PATTERN_FILL
  6
STYLE_05
 62
     7
 10
211.30075969084291
 20
29.78908664997002
 30
0.0
  0
VERTEX
  5
7D6
  8
PATTERN_FILL
  6
STYLE_05
 62
     7
 10
211.53461468451539
 20
29.60479445389225
 30
0.0
  0
VERTEX
  5
7D7
  8
PATTERN_FILL
  6
STYLE_05
 62
     7
 10
211.76774505085251
 20
29.42029840194855
 30
0.0
  0
VERTEX
  5
7D8
  8
PATTERN_FILL
  6
STYLE_05
 62
     7
 10
212.0001507898543
 20
29.235598494138891
 30
0.0
  0
VERTEX
  5
7D9
  8
PATTERN_FILL
  6
STYLE_05
 62
     7
 10
212.23183190152079
 20
29.050694730463309
 30
0.0
  0
VERTEX
  5
7DA
  8
PATTERN_FILL
  6
STYLE_05
 62
     7
 10
212.46278838585209
 20
28.865587110921769
 30
0.0
  0
VERTEX
  5
7DB
  8
PATTERN_FILL
  6
STYLE_05
 62
     7
 10
212.69302024284801
 20
28.680275635514288
 30
0.0
  0
VERTEX
  5
7DC
  8
PATTERN_FILL
  6
STYLE_05
 62
     7
 10
212.92252747250859
 20
28.494760304240849
 30
0.0
  0
VERTEX
  5
7DD
  8
PATTERN_FILL
  6
STYLE_05
 62
     7
 10
213.15131007483399
 20
28.309041117101469
 30
0.0
  0
VERTEX
  5
7DE
  8
PATTERN_FILL
  6
STYLE_05
 62
     7
 10
213.379368049824
 20
28.123118074096141
 30
0.0
  0
VERTEX
  5
7DF
  8
PATTERN_FILL
  6
STYLE_05
 62
     7
 10
213.60670139747879
 20
27.936991175224879
 30
0.0
  0
VERTEX
  5
7E0
  8
PATTERN_FILL
  6
STYLE_05
 62
     7
 10
213.83331011779831
 20
27.750660420487669
 30
0.0
  0
VERTEX
  5
7E1
  8
PATTERN_FILL
  6
STYLE_05
 62
     7
 10
214.05919421078249
 20
27.564125809884519
 30
0.0
  0
VERTEX
  5
7E2
  8
PATTERN_FILL
  6
STYLE_05
 62
     7
 10
214.28435367643129
 20
27.377387343415421
 30
0.0
  0
VERTEX
  5
7E3
  8
PATTERN_FILL
  6
STYLE_05
 62
     7
 10
214.50878851474491
 20
27.190445021080372
 30
0.0
  0
VERTEX
  5
7E4
  8
PATTERN_FILL
  6
STYLE_05
 62
     7
 10
214.7324987257233
 20
27.003298842879371
 30
0.0
  0
VERTEX
  5
7E5
  8
PATTERN_FILL
  6
STYLE_05
 62
     7
 10
214.95548430936631
 20
26.81594880881244
 30
0.0
  0
VERTEX
  5
7E6
  8
PATTERN_FILL
  6
STYLE_05
 62
     7
 10
215.17774526567399
 20
26.62839491887955
 30
0.0
  0
VERTEX
  5
7E7
  8
PATTERN_FILL
  6
STYLE_05
 62
     7
 10
215.39928159464631
 20
26.44063717308072
 30
0.0
  0
VERTEX
  5
7E8
  8
PATTERN_FILL
  6
STYLE_05
 62
     7
 10
215.6200932962835
 20
26.252675571415949
 30
0.0
  0
VERTEX
  5
7E9
  8
PATTERN_FILL
  6
STYLE_05
 62
     7
 10
215.84018037058519
 20
26.064510113885241
 30
0.0
  0
VERTEX
  5
7EA
  8
PATTERN_FILL
  6
STYLE_05
 62
     7
 10
216.0595428175518
 20
25.876140800488571
 30
0.0
  0
VERTEX
  5
7EB
  8
PATTERN_FILL
  6
STYLE_05
 62
     7
 10
216.278180637183
 20
25.687567631225971
 30
0.0
  0
VERTEX
  5
7EC
  8
PATTERN_FILL
  6
STYLE_05
 62
     7
 10
216.49609382947889
 20
25.498790606097401
 30
0.0
  0
VERTEX
  5
7ED
  8
PATTERN_FILL
  6
STYLE_05
 62
     7
 10
216.7132823944396
 20
25.309809725102909
 30
0.0
  0
VERTEX
  5
7EE
  8
PATTERN_FILL
  6
STYLE_05
 62
     7
 10
216.92974633206489
 20
25.120624988242469
 30
0.0
  0
VERTEX
  5
7EF
  8
PATTERN_FILL
  6
STYLE_05
 62
     7
 10
217.145485642355
 20
24.931236395516081
 30
0.0
  0
VERTEX
  5
7F0
  8
PATTERN_FILL
  6
STYLE_05
 62
     7
 10
217.3605003253098
 20
24.741643946923752
 30
0.0
  0
VERTEX
  5
7F1
  8
PATTERN_FILL
  6
STYLE_05
 62
     7
 10
217.5747903809293
 20
24.551847642465461
 30
0.0
  0
VERTEX
  5
7F2
  8
PATTERN_FILL
  6
STYLE_05
 62
     7
 10
217.78835580921341
 20
24.361847482141229
 30
0.0
  0
VERTEX
  5
7F3
  8
PATTERN_FILL
  6
STYLE_05
 62
     7
 10
218.00119661016231
 20
24.171643465951071
 30
0.0
  0
VERTEX
  5
7F4
  8
PATTERN_FILL
  6
STYLE_05
 62
     7
 10
218.21331278377579
 20
23.981235593894951
 30
0.0
  0
VERTEX
  5
7F5
  8
PATTERN_FILL
  6
STYLE_05
 62
     7
 10
218.4247043300542
 20
23.79062386597289
 30
0.0
  0
VERTEX
  5
7F6
  8
PATTERN_FILL
  6
STYLE_05
 62
     7
 10
218.63537124899719
 20
23.599808282184881
 30
0.0
  0
VERTEX
  5
7F7
  8
PATTERN_FILL
  6
STYLE_05
 62
     7
 10
218.84531354060491
 20
23.408788842530932
 30
0.0
  0
VERTEX
  5
7F8
  8
PATTERN_FILL
  6
STYLE_05
 62
     7
 10
219.05453120487729
 20
23.217565547011041
 30
0.0
  0
VERTEX
  5
7F9
  8
PATTERN_FILL
  6
STYLE_05
 62
     7
 10
219.26302424181441
 20
23.0261383956252
 30
0.0
  0
VERTEX
  5
7FA
  8
PATTERN_FILL
  6
STYLE_05
 62
     7
 10
219.47079265141619
 20
22.83450738837341
 30
0.0
  0
VERTEX
  5
7FB
  8
PATTERN_FILL
  6
STYLE_05
 62
     7
 10
219.6778364336827
 20
22.64267252525568
 30
0.0
  0
VERTEX
  5
7FC
  8
PATTERN_FILL
  6
STYLE_05
 62
     7
 10
219.88415558861399
 20
22.450633806271998
 30
0.0
  0
VERTEX
  5
7FD
  8
PATTERN_FILL
  6
STYLE_05
 62
     7
 10
220.0897501162099
 20
22.25839123142238
 30
0.0
  0
VERTEX
  5
7FE
  8
PATTERN_FILL
  6
STYLE_05
 62
     7
 10
220.2946200164705
 20
22.065944800706799
 30
0.0
  0
VERTEX
  5
7FF
  8
PATTERN_FILL
  6
STYLE_05
 62
     7
 10
220.49876528939581
 20
21.873294514125291
 30
0.0
  0
VERTEX
  5
800
  8
PATTERN_FILL
  6
STYLE_05
 62
     7
 10
220.70218593498589
 20
21.680440371677829
 30
0.0
  0
VERTEX
  5
801
  8
PATTERN_FILL
  6
STYLE_05
 62
     7
 10
220.9048819532407
 20
21.48738237336444
 30
0.0
  0
VERTEX
  5
802
  8
PATTERN_FILL
  6
STYLE_05
 62
     7
 10
221.10685334416021
 20
21.2941205191851
 30
0.0
  0
VERTEX
  5
803
  8
PATTERN_FILL
  6
STYLE_05
 62
     7
 10
221.30810010774439
 20
21.100654809139801
 30
0.0
  0
VERTEX
  5
804
  8
PATTERN_FILL
  6
STYLE_05
 62
     7
 10
221.50862224399319
 20
20.906985243228561
 30
0.0
  0
VERTEX
  5
805
  8
PATTERN_FILL
  6
STYLE_05
 62
     7
 10
221.70841975290679
 20
20.713111821451371
 30
0.0
  0
VERTEX
  5
806
  8
PATTERN_FILL
  6
STYLE_05
 62
     7
 10
221.9074926344851
 20
20.51903454380825
 30
0.0
  0
VERTEX
  5
807
  8
PATTERN_FILL
  6
STYLE_05
 62
     7
 10
222.1058408887281
 20
20.32475341029917
 30
0.0
  0
VERTEX
  5
808
  8
PATTERN_FILL
  6
STYLE_05
 62
     7
 10
222.3034645156358
 20
20.13026842092416
 30
0.0
  0
VERTEX
  5
809
  8
PATTERN_FILL
  6
STYLE_05
 62
     7
 10
222.50036351520819
 20
19.935579575683189
 30
0.0
  0
VERTEX
  5
80A
  8
PATTERN_FILL
  6
STYLE_05
 62
     7
 10
222.50036351520819
 20
19.935579575683189
 30
0.0
  0
SEQEND
  5
80B
  8
PATTERN_FILL
  6
STYLE_05
 62
     7
  0
ARC
  5
245
  8
PATTERN_FILL
  6
STYLE_05
 62
     7
 10
196.78745278580851
 20
15.728376623693199
 30
0.0
 40
20.000000000000039
 50
53.504198154582767
 51
60.000000000000099
  0
ARC
  5
246
  8
PATTERN_FILL
  6
STYLE_05
 62
     7
 10
222.93484931205711
 20
27.767632852568092
 30
0.0
 40
1.9999999999999241
 50
166.5588485864921
 51
133.4411514135025
  0
ARC
  5
247
  8
PATTERN_FILL
  6
STYLE_05
 62
     7
 10
221.66494328972581
 20
33.129312878611053
 30
0.0
 40
3.9109361935368518
 50
242.06430900741231
 51
268.45697255836808
  0
ARC
  5
248
  8
PATTERN_FILL
  6
STYLE_05
 62
     7
 10
217.6565451913747
 20
26.186563715304452
 30
0.0
 40
3.9109361935368279
 50
31.543027441630841
 51
57.93569099258665
  0
LINE
  5
249
  8
PATTERN_FILL
  6
STYLE_05
 62
     7
 10
219.83274694970549
 20
29.674102540363521
 30
0.0
 11
200.9100918771409
 21
40.599102540291099
 31
0.0
  0
LINE
  5
24A
  8
PATTERN_FILL
  6
STYLE_05
 62
     7
 10
219.73274694970559
 20
29.500897459606652
 30
0.0
 11
200.8100918771411
 21
40.425897459534163
 31
0.0
  0
LINE
  5
24B
  8
PATTERN_FILL
  6
STYLE_05
 62
     7
 10
201.80562608214041
 20
1.236450971471839
 30
0.0
 11
198.77453716889491
 21
2.986450971471839
 31
0.0
  0
ARC
  5
24C
  8
PATTERN_FILL
  6
STYLE_05
 62
     7
 10
242.15018440854431
 20
-20.915588487477091
 30
0.0
 40
49.525289133488677
 50
117.40375355909759
 51
151.14315062258919
  0
ARC
  5
24D
  8
PATTERN_FILL
  6
STYLE_05
 62
     7
 10
245.18127332178969
 20
-22.665588487477091
 30
0.0
 40
49.525289133488677
 50
118.49215468475219
 51
118.4921893111199
  0
ARC
  5
24E
  8
PATTERN_FILL
  6
STYLE_05
 62
     7
 10
245.18127332178969
 20
-22.665588487477091
 30
0.0
 40
49.52528913348857
 50
143.2707765521661
 51
151.14315062258919
  0
LINE
  5
24F
  8
PATTERN_FILL
  6
STYLE_05
 62
     7
 10
221.91472790846689
 20
0.0664370292454066
 30
0.0
 11
218.71043391446449
 21
1.916437029245315
 31
0.0
  0
LINE
  5
250
  8
PATTERN_FILL
  6
STYLE_05
 62
     7
 10
218.71043391446449
 20
1.916437029245315
 30
0.0
 11
227.46043391446449
 21
17.071881595473059
 31
0.0
  0
LINE
  5
251
  8
PATTERN_FILL
  6
STYLE_05
 62
     7
 10
209.3853182996917
 20
4.7022188283054609
 30
0.0
 11
205.4882039826617
 21
6.9522188283055764
 31
0.0
  0
LINE
  5
252
  8
PATTERN_FILL
  6
STYLE_05
 62
     7
 10
222.1354339144645
 20
7.8487110451687547
 30
0.0
 11
216.00775791303261
 21
11.386526434102301
 31
0.0
  0
LINE
  5
253
  8
PATTERN_FILL
  6
STYLE_05
 62
     7
 10
224.1354339144645
 20
11.312812660306539
 30
0.0
 11
219.589989874438
 21
13.93712600040223
 31
0.0
  0
ARC
  5
254
  8
PATTERN_FILL
  6
STYLE_05
 62
     7
 10
241.17823471281801
 20
-20.17370573762744
 30
0.0
 40
40.368318729692248
 50
110.9230362156343
 51
141.9590918595699
  0
LINE
  5
255
  8
PATTERN_FILL
  6
STYLE_05
 62
     7
 10
-68.060734916638154
 20
137.07651991520959
 30
0.0
 11
-75.854963550698102
 21
132.57651991520959
 31
0.0
  0
LINE
  5
256
  8
PATTERN_FILL
  6
STYLE_05
 62
     7
 10
-73.71432475512438
 20
147.6688247606229
 30
0.0
 11
-82.201373712211904
 21
142.76882476062289
 31
0.0
  0
LINE
  5
257
  8
PATTERN_FILL
  6
STYLE_05
 62
     7
 10
-75.854963550698102
 20
132.57651991520959
 30
0.0
 11
-82.201373712211904
 21
142.76882476062289
 31
0.0
  0
LINE
  5
258
  8
PATTERN_FILL
  6
STYLE_05
 62
     7
 10
-68.060734916638154
 20
137.07651991520959
 30
0.0
 11
-73.71432475512438
 21
147.6688247606229
 31
0.0
  0
LINE
  5
259
  8
PATTERN_FILL
  6
STYLE_05
 62
     7
 10
-82.714324755124395
 20
163.25728202874279
 30
0.0
 11
-91.201373712211932
 21
158.35728202874279
 31
0.0
  0
LINE
  5
25A
  8
PATTERN_FILL
  6
STYLE_05
 62
     7
 10
-82.201373712211904
 20
142.76882476062289
 30
0.0
 11
-97.53949136145944
 21
169.3352238215885
 31
0.0
  0
LINE
  5
25B
  8
PATTERN_FILL
  6
STYLE_05
 62
     7
 10
-73.71432475512438
 20
147.6688247606229
 30
0.0
 11
-89.052442404371931
 21
174.23522382158851
 31
0.0
  0
CIRCLE
  5
25C
  8
PATTERN_FILL
  6
STYLE_05
 62
     7
 10
-96.457849233668142
 20
177.26176470064721
 30
0.0
 40
7.999999999999992
  0
CIRCLE
  5
25D
  8
PATTERN_FILL
  6
STYLE_05
 62
     7
 10
-96.457849233668142
 20
177.26176470064721
 30
0.0
 40
3.9499999999999722
  0
CIRCLE
  5
25E
  8
PATTERN_FILL
  6
STYLE_05
 62
     7
 10
-96.457849233668142
 20
177.26176470064721
 30
0.0
 40
5.8499999999999641
  0
LINE
  5
25F
  8
PATTERN_FILL
  6
STYLE_05
 62
     7
 10
-100.9043152176753
 20
181.0632696990744
 30
0.0
 11
-102.02595116545589
 21
183.00600014822601
 31
0.0
  0
LINE
  5
260
  8
PATTERN_FILL
  6
STYLE_05
 62
     7
 10
-97.526816142916047
 20
183.01326969907441
 30
0.0
 11
-98.648452090696608
 21
184.956000148226
 31
0.0
  0
LINE
  5
261
  8
PATTERN_FILL
  6
STYLE_05
 62
     7
 10
-95.388882324420351
 20
183.0132696990741
 30
0.0
 11
-94.267246376639434
 21
184.95600014822639
 31
0.0
  0
LINE
  5
262
  8
PATTERN_FILL
  6
STYLE_05
 62
     7
 10
-92.011383249660639
 20
181.06326969907479
 30
0.0
 11
-90.889747301879993
 21
183.00600014822669
 31
0.0
  0
LINE
  5
263
  8
PATTERN_FILL
  6
STYLE_05
 62
     7
 10
-101.97328212692381
 20
179.21176470064711
 30
0.0
 11
-104.2165540224841
 21
179.21176470064711
 31
0.0
  0
LINE
  5
264
  8
PATTERN_FILL
  6
STYLE_05
 62
     7
 10
-101.9732821269229
 20
175.31176470064719
 30
0.0
 11
-104.21655402248339
 21
175.3117647006471
 31
0.0
  0
LINE
  5
265
  8
PATTERN_FILL
  6
STYLE_05
 62
     7
 10
-100.9043152176752
 20
173.4602597022201
 30
0.0
 11
-102.02595116545611
 21
171.51752925306781
 31
0.0
  0
LINE
  5
266
  8
PATTERN_FILL
  6
STYLE_05
 62
     7
 10
-97.526816142916374
 20
171.5102597022194
 30
0.0
 11
-98.648452090697077
 21
169.56752925306751
 31
0.0
  0
LINE
  5
267
  8
PATTERN_FILL
  6
STYLE_05
 62
     7
 10
-94.267246376639633
 20
169.5675292530683
 30
0.0
 11
-95.388882324420237
 21
171.51025970222
 31
0.0
  0
LINE
  5
268
  8
PATTERN_FILL
  6
STYLE_05
 62
     7
 10
-90.889747301880362
 20
171.51752925306829
 30
0.0
 11
-92.011383249660952
 21
173.4602597022199
 31
0.0
  0
LINE
  5
269
  8
PATTERN_FILL
  6
STYLE_05
 62
     7
 10
-88.699144444852777
 20
175.31176470064719
 30
0.0
 11
-90.94241634041326
 21
175.31176470064719
 31
0.0
  0
LINE
  5
26A
  8
PATTERN_FILL
  6
STYLE_05
 62
     7
 10
-88.699144444852095
 20
179.21176470064711
 30
0.0
 11
-90.942416340412436
 21
179.21176470064711
 31
0.0
  0
LINE
  5
26B
  8
PATTERN_FILL
  6
STYLE_05
 62
     7
 10
-49.387624174832233
 20
89.833743375041621
 30
0.0
 11
-44.753074292504039
 21
93.606467508636854
 31
0.0
  0
LINE
  5
26C
  8
PATTERN_FILL
  6
STYLE_05
 62
     7
 10
-50.387624174832233
 20
91.565794182610489
 30
0.0
 11
-45.753074292504039
 21
95.338518316205707
 31
0.0
  0
LINE
  5
26D
  8
PATTERN_FILL
  6
STYLE_05
 62
     7
 10
-51.387624174832233
 20
93.297844990179385
 30
0.0
 11
-46.753074292504053
 21
97.070569123774604
 31
0.0
  0
LINE
  5
26E
  8
PATTERN_FILL
  6
STYLE_05
 62
     7
 10
-52.387624174832233
 20
95.029895797748253
 30
0.0
 11
-47.753074292504039
 21
98.802619931343486
 31
0.0
  0
LINE
  5
26F
  8
PATTERN_FILL
  6
STYLE_05
 62
     7
 10
-53.387624174832233
 20
96.761946605317135
 30
0.0
 11
-48.753074292504053
 21
100.5346707389123
 31
0.0
  0
LINE
  5
270
  8
PATTERN_FILL
  6
STYLE_05
 62
     7
 10
-54.387624174832233
 20
98.493997412886003
 30
0.0
 11
-49.753074292504039
 21
102.26672154648119
 31
0.0
  0
LINE
  5
271
  8
PATTERN_FILL
  6
STYLE_05
 62
     7
 10
-55.387624174832233
 20
100.2260482204549
 30
0.0
 11
-50.753074292504039
 21
103.9987723540501
 31
0.0
  0
LINE
  5
272
  8
PATTERN_FILL
  6
STYLE_05
 62
     7
 10
-56.387624174832233
 20
101.9580990280237
 30
0.0
 11
-51.753074292504053
 21
105.7308231616189
 31
0.0
  0
LINE
  5
273
  8
PATTERN_FILL
  6
STYLE_05
 62
     7
 10
-57.387624174832233
 20
103.69014983559261
 30
0.0
 11
-52.753074292504039
 21
107.4628739691878
 31
0.0
  0
LINE
  5
274
  8
PATTERN_FILL
  6
STYLE_05
 62
     7
 10
-58.387624174832233
 20
105.4222006431615
 30
0.0
 11
-53.753074292504053
 21
109.19492477675669
 31
0.0
  0
LINE
  5
275
  8
PATTERN_FILL
  6
STYLE_05
 62
     7
 10
-59.387624174832233
 20
107.1542514507304
 30
0.0
 11
-54.753074292504039
 21
110.9269755843256
 31
0.0
  0
LINE
  5
276
  8
PATTERN_FILL
  6
STYLE_05
 62
     7
 10
-60.387624174832233
 20
108.8863022582993
 30
0.0
 11
-55.753074292504039
 21
112.6590263918945
 31
0.0
  0
LINE
  5
277
  8
PATTERN_FILL
  6
STYLE_05
 62
     7
 10
-61.387624174832233
 20
110.61835306586811
 30
0.0
 11
-56.753074292504053
 21
114.3910771994633
 31
0.0
  0
LINE
  5
278
  8
PATTERN_FILL
  6
STYLE_05
 62
     7
 10
-62.387624174832233
 20
112.350403873437
 30
0.0
 11
-57.753074292504039
 21
116.12312800703219
 31
0.0
  0
LINE
  5
279
  8
PATTERN_FILL
  6
STYLE_05
 62
     7
 10
-63.387624174832233
 20
114.0824546810059
 30
0.0
 11
-58.753074292504053
 21
117.8551788146011
 31
0.0
  0
LINE
  5
27A
  8
PATTERN_FILL
  6
STYLE_05
 62
     7
 10
-64.387624174832226
 20
115.8145054885748
 30
0.0
 11
-59.753074292504039
 21
119.58722962217
 31
0.0
  0
LINE
  5
27B
  8
PATTERN_FILL
  6
STYLE_05
 62
     7
 10
-65.387624174832226
 20
117.54655629614361
 30
0.0
 11
-60.753074292504039
 21
121.3192804297388
 31
0.0
  0
LINE
  5
27C
  8
PATTERN_FILL
  6
STYLE_05
 62
     7
 10
-66.387624174832226
 20
119.2786071037125
 30
0.0
 11
-61.753074292504053
 21
123.05133123730771
 31
0.0
  0
LINE
  5
27D
  8
PATTERN_FILL
  6
STYLE_05
 62
     7
 10
-67.387624174832226
 20
121.0106579112814
 30
0.0
 11
-62.753074292504039
 21
124.7833820448766
 31
0.0
  0
LINE
  5
27E
  8
PATTERN_FILL
  6
STYLE_05
 62
     7
 10
-68.387624174832226
 20
122.7427087188503
 30
0.0
 11
-63.753074292504053
 21
126.5154328524455
 31
0.0
  0
LINE
  5
27F
  8
PATTERN_FILL
  6
STYLE_05
 62
     7
 10
-69.387624174832226
 20
124.47475952641911
 30
0.0
 11
-64.753074292504039
 21
128.24748366001441
 31
0.0
  0
LINE
  5
280
  8
PATTERN_FILL
  6
STYLE_05
 62
     7
 10
-70.387624174832226
 20
126.206810333988
 30
0.0
 11
-65.753074292504039
 21
129.97953446758319
 31
0.0
  0
LINE
  5
281
  8
PATTERN_FILL
  6
STYLE_05
 62
     7
 10
-71.387624174832226
 20
127.9388611415569
 30
0.0
 11
-66.753074292504039
 21
131.71158527515209
 31
0.0
  0
LINE
  5
282
  8
PATTERN_FILL
  6
STYLE_05
 62
     7
 10
-72.387624174832226
 20
129.67091194912581
 30
0.0
 11
-67.753074292504024
 21
133.44363608272101
 31
0.0
  0
LINE
  5
283
  8
PATTERN_FILL
  6
STYLE_05
 62
     7
 10
-73.387624174832226
 20
131.40296275669471
 30
0.0
 11
-68.753074292504039
 21
135.17568689028991
 31
0.0
  0
LINE
  5
284
  8
PATTERN_FILL
  6
STYLE_05
 62
     7
 10
-48.387624174832233
 20
88.101692567472739
 30
0.0
 11
-43.753074292504039
 21
91.874416701067958
 31
0.0
  0
LINE
  5
285
  8
PATTERN_FILL
  6
STYLE_05
 62
     7
 10
-47.387624174832233
 20
86.369641759903871
 30
0.0
 11
-42.753074292504039
 21
90.142365893499075
 31
0.0
  0
LINE
  5
286
  8
PATTERN_FILL
  6
STYLE_05
 62
     7
 10
-46.387624174832233
 20
84.637590952335017
 30
0.0
 11
-41.753074292504053
 21
88.410315085930193
 31
0.0
  0
LINE
  5
287
  8
PATTERN_FILL
  6
STYLE_05
 62
     7
 10
-45.387624174832233
 20
82.905540144766107
 30
0.0
 11
-40.753074292504039
 21
86.678264278361326
 31
0.0
  0
LINE
  5
288
  8
PATTERN_FILL
  6
STYLE_05
 62
     7
 10
-44.387624174832233
 20
81.173489337197253
 30
0.0
 11
-40.450000000292917
 21
84.378885789818781
 31
0.0
  0
LINE
  5
289
  8
PATTERN_FILL
  6
STYLE_05
 62
     7
 10
-43.387624174832233
 20
79.441438529628343
 30
0.0
 11
-40.450000000292917
 21
81.832791713888341
 31
0.0
  0
LINE
  5
28A
  8
PATTERN_FILL
  6
STYLE_05
 62
     7
 10
-42.387624174832219
 20
77.709387722059475
 30
0.0
 11
-40.450000000292917
 21
79.286697637957886
 31
0.0
  0
LINE
  5
28B
  8
PATTERN_FILL
  6
STYLE_05
 62
     7
 10
-41.387624174832219
 20
75.977336914490593
 30
0.0
 11
-40.450000000292917
 21
76.740603562027403
 31
0.0
  0
LINE
  5
28C
  8
PATTERN_FILL
  6
STYLE_05
 62
     7
 10
-37.68519487560836
 20
76.445180486178032
 30
0.0
 11
-37.500000000000021
 21
76.595937128002063
 31
0.0
  0
LINE
  5
28D
  8
PATTERN_FILL
  6
STYLE_05
 62
     7
 10
-68.060734916638154
 20
137.07651991520959
 30
0.0
 11
-75.854963550698102
 21
132.57651991520959
 31
0.0
  0
LINE
  5
28E
  8
PATTERN_FILL
  6
STYLE_05
 62
     7
 10
-73.71432475512438
 20
147.6688247606229
 30
0.0
 11
-82.201373712211904
 21
142.76882476062289
 31
0.0
  0
LINE
  5
28F
  8
PATTERN_FILL
  6
STYLE_05
 62
     7
 10
-75.854963550698102
 20
132.57651991520959
 30
0.0
 11
-82.201373712211904
 21
142.76882476062289
 31
0.0
  0
LINE
  5
290
  8
PATTERN_FILL
  6
STYLE_05
 62
     7
 10
-68.060734916638154
 20
137.07651991520959
 30
0.0
 11
-73.71432475512438
 21
147.6688247606229
 31
0.0
  0
LINE
  5
291
  8
PATTERN_FILL
  6
STYLE_05
 62
     7
 10
-82.714324755124395
 20
163.25728202874279
 30
0.0
 11
-91.201373712211932
 21
158.35728202874279
 31
0.0
  0
LINE
  5
292
  8
PATTERN_FILL
  6
STYLE_05
 62
     7
 10
-82.201373712211904
 20
142.76882476062289
 30
0.0
 11
-97.53949136145944
 21
169.3352238215885
 31
0.0
  0
LINE
  5
293
  8
PATTERN_FILL
  6
STYLE_05
 62
     7
 10
-73.71432475512438
 20
147.6688247606229
 30
0.0
 11
-89.052442404371931
 21
174.23522382158851
 31
0.0
  0
CIRCLE
  5
294
  8
PATTERN_FILL
  6
STYLE_05
 62
     7
 10
-96.457849233668142
 20
177.26176470064721
 30
0.0
 40
7.999999999999992
  0
CIRCLE
  5
295
  8
PATTERN_FILL
  6
STYLE_05
 62
     7
 10
-96.457849233668142
 20
177.26176470064721
 30
0.0
 40
3.9499999999999722
  0
CIRCLE
  5
296
  8
PATTERN_FILL
  6
STYLE_05
 62
     7
 10
-96.457849233668142
 20
177.26176470064721
 30
0.0
 40
5.8499999999999641
  0
LINE
  5
297
  8
PATTERN_FILL
  6
STYLE_05
 62
     7
 10
-100.9043152176753
 20
181.0632696990744
 30
0.0
 11
-102.02595116545589
 21
183.00600014822601
 31
0.0
  0
LINE
  5
298
  8
PATTERN_FILL
  6
STYLE_05
 62
     7
 10
-97.526816142916047
 20
183.01326969907441
 30
0.0
 11
-98.648452090696608
 21
184.956000148226
 31
0.0
  0
LINE
  5
299
  8
PATTERN_FILL
  6
STYLE_05
 62
     7
 10
-95.388882324420351
 20
183.0132696990741
 30
0.0
 11
-94.267246376639434
 21
184.95600014822639
 31
0.0
  0
LINE
  5
29A
  8
PATTERN_FILL
  6
STYLE_05
 62
     7
 10
-92.011383249660639
 20
181.06326969907479
 30
0.0
 11
-90.889747301879993
 21
183.00600014822669
 31
0.0
  0
LINE
  5
29B
  8
PATTERN_FILL
  6
STYLE_05
 62
     7
 10
-101.97328212692381
 20
179.21176470064711
 30
0.0
 11
-104.2165540224841
 21
179.21176470064711
 31
0.0
  0
LINE
  5
29C
  8
PATTERN_FILL
  6
STYLE_05
 62
     7
 10
-101.9732821269229
 20
175.31176470064719
 30
0.0
 11
-104.21655402248339
 21
175.3117647006471
 31
0.0
  0
LINE
  5
29D
  8
PATTERN_FILL
  6
STYLE_05
 62
     7
 10
-100.9043152176752
 20
173.4602597022201
 30
0.0
 11
-102.02595116545611
 21
171.51752925306781
 31
0.0
  0
LINE
  5
29E
  8
PATTERN_FILL
  6
STYLE_05
 62
     7
 10
-97.526816142916374
 20
171.5102597022194
 30
0.0
 11
-98.648452090697077
 21
169.56752925306751
 31
0.0
  0
LINE
  5
29F
  8
PATTERN_FILL
  6
STYLE_05
 62
     7
 10
-94.267246376639633
 20
169.5675292530683
 30
0.0
 11
-95.388882324420237
 21
171.51025970222
 31
0.0
  0
LINE
  5
2A0
  8
PATTERN_FILL
  6
STYLE_05
 62
     7
 10
-90.889747301880362
 20
171.51752925306829
 30
0.0
 11
-92.011383249660952
 21
173.4602597022199
 31
0.0
  0
LINE
  5
2A1
  8
PATTERN_FILL
  6
STYLE_05
 62
     7
 10
-88.699144444852777
 20
175.31176470064719
 30
0.0
 11
-90.94241634041326
 21
175.31176470064719
 31
0.0
  0
LINE
  5
2A2
  8
PATTERN_FILL
  6
STYLE_05
 62
     7
 10
-88.699144444852095
 20
179.21176470064711
 30
0.0
 11
-90.942416340412436
 21
179.21176470064711
 31
0.0
  0
LINE
  5
2A3
  8
PATTERN_FILL
  6
STYLE_05
 62
     7
 10
-49.387624174832233
 20
89.833743375041621
 30
0.0
 11
-44.753074292504039
 21
93.606467508636854
 31
0.0
  0
LINE
  5
2A4
  8
PATTERN_FILL
  6
STYLE_05
 62
     7
 10
-50.387624174832233
 20
91.565794182610489
 30
0.0
 11
-45.753074292504039
 21
95.338518316205707
 31
0.0
  0
LINE
  5
2A5
  8
PATTERN_FILL
  6
STYLE_05
 62
     7
 10
-51.387624174832233
 20
93.297844990179385
 30
0.0
 11
-46.753074292504053
 21
97.070569123774604
 31
0.0
  0
LINE
  5
2A6
  8
PATTERN_FILL
  6
STYLE_05
 62
     7
 10
-52.387624174832233
 20
95.029895797748253
 30
0.0
 11
-47.753074292504039
 21
98.802619931343486
 31
0.0
  0
LINE
  5
2A7
  8
PATTERN_FILL
  6
STYLE_05
 62
     7
 10
-53.387624174832233
 20
96.761946605317135
 30
0.0
 11
-48.753074292504053
 21
100.5346707389123
 31
0.0
  0
LINE
  5
2A8
  8
PATTERN_FILL
  6
STYLE_05
 62
     7
 10
-54.387624174832233
 20
98.493997412886003
 30
0.0
 11
-49.753074292504039
 21
102.26672154648119
 31
0.0
  0
LINE
  5
2A9
  8
PATTERN_FILL
  6
STYLE_05
 62
     7
 10
-55.387624174832233
 20
100.2260482204549
 30
0.0
 11
-50.753074292504039
 21
103.9987723540501
 31
0.0
  0
LINE
  5
2AA
  8
PATTERN_FILL
  6
STYLE_05
 62
     7
 10
-56.387624174832233
 20
101.9580990280237
 30
0.0
 11
-51.753074292504053
 21
105.7308231616189
 31
0.0
  0
LINE
  5
2AB
  8
PATTERN_FILL
  6
STYLE_05
 62
     7
 10
-57.387624174832233
 20
103.69014983559261
 30
0.0
 11
-52.753074292504039
 21
107.4628739691878
 31
0.0
  0
LINE
  5
2AC
  8
PATTERN_FILL
  6
STYLE_05
 62
     7
 10
-58.387624174832233
 20
105.4222006431615
 30
0.0
 11
-53.753074292504053
 21
109.19492477675669
 31
0.0
  0
LINE
  5
2AD
  8
PATTERN_FILL
  6
STYLE_05
 62
     7
 10
-59.387624174832233
 20
107.1542514507304
 30
0.0
 11
-54.753074292504039
 21
110.9269755843256
 31
0.0
  0
LINE
  5
2AE
  8
PATTERN_FILL
  6
STYLE_05
 62
     7
 10
-60.387624174832233
 20
108.8863022582993
 30
0.0
 11
-55.753074292504039
 21
112.6590263918945
 31
0.0
  0
LINE
  5
2AF
  8
PATTERN_FILL
  6
STYLE_05
 62
     7
 10
-61.387624174832233
 20
110.61835306586811
 30
0.0
 11
-56.753074292504053
 21
114.3910771994633
 31
0.0
  0
LINE
  5
2B0
  8
PATTERN_FILL
  6
STYLE_05
 62
     7
 10
-62.387624174832233
 20
112.350403873437
 30
0.0
 11
-57.753074292504039
 21
116.12312800703219
 31
0.0
  0
LINE
  5
2B1
  8
PATTERN_FILL
  6
STYLE_05
 62
     7
 10
-63.387624174832233
 20
114.0824546810059
 30
0.0
 11
-58.753074292504053
 21
117.8551788146011
 31
0.0
  0
LINE
  5
2B2
  8
PATTERN_FILL
  6
STYLE_05
 62
     7
 10
-64.387624174832226
 20
115.8145054885748
 30
0.0
 11
-59.753074292504039
 21
119.58722962217
 31
0.0
  0
LINE
  5
2B3
  8
PATTERN_FILL
  6
STYLE_05
 62
     7
 10
-65.387624174832226
 20
117.54655629614361
 30
0.0
 11
-60.753074292504039
 21
121.3192804297388
 31
0.0
  0
LINE
  5
2B4
  8
PATTERN_FILL
  6
STYLE_05
 62
     7
 10
-66.387624174832226
 20
119.2786071037125
 30
0.0
 11
-61.753074292504053
 21
123.05133123730771
 31
0.0
  0
LINE
  5
2B5
  8
PATTERN_FILL
  6
STYLE_05
 62
     7
 10
-67.387624174832226
 20
121.0106579112814
 30
0.0
 11
-62.753074292504039
 21
124.7833820448766
 31
0.0
  0
LINE
  5
2B6
  8
PATTERN_FILL
  6
STYLE_05
 62
     7
 10
-68.387624174832226
 20
122.7427087188503
 30
0.0
 11
-63.753074292504053
 21
126.5154328524455
 31
0.0
  0
LINE
  5
2B7
  8
PATTERN_FILL
  6
STYLE_05
 62
     7
 10
-69.387624174832226
 20
124.47475952641911
 30
0.0
 11
-64.753074292504039
 21
128.24748366001441
 31
0.0
  0
LINE
  5
2B8
  8
PATTERN_FILL
  6
STYLE_05
 62
     7
 10
-70.387624174832226
 20
126.206810333988
 30
0.0
 11
-65.753074292504039
 21
129.97953446758319
 31
0.0
  0
LINE
  5
2B9
  8
PATTERN_FILL
  6
STYLE_05
 62
     7
 10
-71.387624174832226
 20
127.9388611415569
 30
0.0
 11
-66.753074292504039
 21
131.71158527515209
 31
0.0
  0
LINE
  5
2BA
  8
PATTERN_FILL
  6
STYLE_05
 62
     7
 10
-72.387624174832226
 20
129.67091194912581
 30
0.0
 11
-67.753074292504024
 21
133.44363608272101
 31
0.0
  0
LINE
  5
2BB
  8
PATTERN_FILL
  6
STYLE_05
 62
     7
 10
-73.387624174832226
 20
131.40296275669471
 30
0.0
 11
-68.753074292504039
 21
135.17568689028991
 31
0.0
  0
LINE
  5
2BC
  8
PATTERN_FILL
  6
STYLE_05
 62
     7
 10
-48.387624174832233
 20
88.101692567472739
 30
0.0
 11
-43.753074292504039
 21
91.874416701067958
 31
0.0
  0
LINE
  5
2BD
  8
PATTERN_FILL
  6
STYLE_05
 62
     7
 10
-47.387624174832233
 20
86.369641759903871
 30
0.0
 11
-42.753074292504039
 21
90.142365893499075
 31
0.0
  0
LINE
  5
2BE
  8
PATTERN_FILL
  6
STYLE_05
 62
     7
 10
-46.387624174832233
 20
84.637590952335017
 30
0.0
 11
-41.753074292504053
 21
88.410315085930193
 31
0.0
  0
LINE
  5
2BF
  8
PATTERN_FILL
  6
STYLE_05
 62
     7
 10
-45.387624174832233
 20
82.905540144766107
 30
0.0
 11
-40.753074292504039
 21
86.678264278361326
 31
0.0
  0
LINE
  5
2C0
  8
PATTERN_FILL
  6
STYLE_05
 62
     7
 10
-44.387624174832233
 20
81.173489337197253
 30
0.0
 11
-40.450000000292917
 21
84.378885789818781
 31
0.0
  0
LINE
  5
2C1
  8
PATTERN_FILL
  6
STYLE_05
 62
     7
 10
-43.387624174832233
 20
79.441438529628343
 30
0.0
 11
-40.450000000292917
 21
81.832791713888341
 31
0.0
  0
LINE
  5
2C2
  8
PATTERN_FILL
  6
STYLE_05
 62
     7
 10
-42.387624174832219
 20
77.709387722059475
 30
0.0
 11
-40.450000000292917
 21
79.286697637957886
 31
0.0
  0
LINE
  5
2C3
  8
PATTERN_FILL
  6
STYLE_05
 62
     7
 10
-41.387624174832219
 20
75.977336914490593
 30
0.0
 11
-40.450000000292917
 21
76.740603562027403
 31
0.0
  0
LINE
  5
2C4
  8
PATTERN_FILL
  6
STYLE_05
 62
     7
 10
-74.512624174832197
 20
133.35151991520971
 30
0.0
 11
-40.387624174832219
 21
74.245286106921697
 31
0.0
  0
LINE
  5
2C5
  8
PATTERN_FILL
  6
STYLE_05
 62
     7
 10
-69.403074292504058
 20
136.3015199152097
 30
0.0
 11
-40.450000000292917
 21
86.153324205783647
 31
0.0
  0
LINE
  5
2C6
  8
PATTERN_FILL
  6
STYLE_05
 62
     7
 10
-6.9392650839476877
 20
137.07651991520959
 30
0.0
 11
0.8549635501122594
 21
132.57651991520959
 31
0.0
  0
LINE
  5
2C7
  8
PATTERN_FILL
  6
STYLE_05
 62
     7
 10
-1.2856752454614619
 20
147.6688247606229
 30
0.0
 11
7.2013737116260597
 21
142.76882476062289
 31
0.0
  0
LINE
  5
2C8
  8
PATTERN_FILL
  6
STYLE_05
 62
     7
 10
0.8549635501122594
 20
132.57651991520959
 30
0.0
 11
7.2013737116260597
 21
142.76882476062289
 31
0.0
  0
LINE
  5
2C9
  8
PATTERN_FILL
  6
STYLE_05
 62
     7
 10
-6.9392650839476877
 20
137.07651991520959
 30
0.0
 11
-1.2856752454614619
 21
147.6688247606229
 31
0.0
  0
LINE
  5
2CA
  8
PATTERN_FILL
  6
STYLE_05
 62
     7
 10
7.7143247545385369
 20
163.25728202874279
 30
0.0
 11
16.201373711626061
 21
158.35728202874279
 31
0.0
  0
LINE
  5
2CB
  8
PATTERN_FILL
  6
STYLE_05
 62
     7
 10
7.2013737116260597
 20
142.76882476062289
 30
0.0
 11
22.53949136087358
 21
169.3352238215885
 31
0.0
  0
LINE
  5
2CC
  8
PATTERN_FILL
  6
STYLE_05
 62
     7
 10
-1.2856752454614619
 20
147.6688247606229
 30
0.0
 11
14.052442403786079
 21
174.23522382158851
 31
0.0
  0
CIRCLE
  5
2CD
  8
PATTERN_FILL
  6
STYLE_05
 62
     7
 10
21.457849233082278
 20
177.26176470064721
 30
0.0
 40
7.999999999999992
  0
CIRCLE
  5
2CE
  8
PATTERN_FILL
  6
STYLE_05
 62
     7
 10
21.457849233082278
 20
177.26176470064721
 30
0.0
 40
3.9499999999999722
  0
CIRCLE
  5
2CF
  8
PATTERN_FILL
  6
STYLE_05
 62
     7
 10
21.457849233082278
 20
177.26176470064721
 30
0.0
 40
5.8499999999999641
  0
LINE
  5
2D0
  8
PATTERN_FILL
  6
STYLE_05
 62
     7
 10
25.904315217089461
 20
181.0632696990744
 30
0.0
 11
27.025951164870051
 21
183.00600014822601
 31
0.0
  0
LINE
  5
2D1
  8
PATTERN_FILL
  6
STYLE_05
 62
     7
 10
22.52681614233019
 20
183.01326969907441
 30
0.0
 11
23.648452090110752
 21
184.956000148226
 31
0.0
  0
LINE
  5
2D2
  8
PATTERN_FILL
  6
STYLE_05
 62
     7
 10
20.388882323834519
 20
183.0132696990741
 30
0.0
 11
19.267246376053571
 21
184.95600014822639
 31
0.0
  0
LINE
  5
2D3
  8
PATTERN_FILL
  6
STYLE_05
 62
     7
 10
17.0113832490748
 20
181.06326969907479
 30
0.0
 11
15.88974730129415
 21
183.00600014822669
 31
0.0
  0
LINE
  5
2D4
  8
PATTERN_FILL
  6
STYLE_05
 62
     7
 10
26.97328212633802
 20
179.21176470064711
 30
0.0
 11
29.21655402189829
 21
179.21176470064711
 31
0.0
  0
LINE
  5
2D5
  8
PATTERN_FILL
  6
STYLE_05
 62
     7
 10
26.973282126337111
 20
175.31176470064719
 30
0.0
 11
29.216554021897569
 21
175.3117647006471
 31
0.0
  0
LINE
  5
2D6
  8
PATTERN_FILL
  6
STYLE_05
 62
     7
 10
25.904315217089351
 20
173.4602597022201
 30
0.0
 11
27.025951164870278
 21
171.51752925306781
 31
0.0
  0
LINE
  5
2D7
  8
PATTERN_FILL
  6
STYLE_05
 62
     7
 10
22.526816142330532
 20
171.5102597022194
 30
0.0
 11
23.648452090111238
 21
169.56752925306751
 31
0.0
  0
LINE
  5
2D8
  8
PATTERN_FILL
  6
STYLE_05
 62
     7
 10
19.267246376053791
 20
169.5675292530683
 30
0.0
 11
20.38888232383438
 21
171.51025970222
 31
0.0
  0
LINE
  5
2D9
  8
PATTERN_FILL
  6
STYLE_05
 62
     7
 10
15.88974730129452
 20
171.51752925306829
 30
0.0
 11
17.011383249075109
 21
173.4602597022199
 31
0.0
  0
LINE
  5
2DA
  8
PATTERN_FILL
  6
STYLE_05
 62
     7
 10
13.699144444266929
 20
175.31176470064719
 30
0.0
 11
15.9424163398274
 21
175.31176470064719
 31
0.0
  0
LINE
  5
2DB
  8
PATTERN_FILL
  6
STYLE_05
 62
     7
 10
13.699144444266251
 20
179.21176470064711
 30
0.0
 11
15.942416339826609
 21
179.21176470064711
 31
0.0
  0
LINE
  5
2DC
  8
PATTERN_FILL
  6
STYLE_05
 62
     7
 10
-22.612375825753631
 20
95.029895797748253
 30
0.0
 11
-27.2469257080818
 21
98.802619931343486
 31
0.0
  0
LINE
  5
2DD
  8
PATTERN_FILL
  6
STYLE_05
 62
     7
 10
-21.612375825753631
 20
96.761946605317135
 30
0.0
 11
-26.246925708081811
 21
100.5346707389123
 31
0.0
  0
LINE
  5
2DE
  8
PATTERN_FILL
  6
STYLE_05
 62
     7
 10
-20.612375825753642
 20
98.493997412886003
 30
0.0
 11
-25.246925708081811
 21
102.26672154648119
 31
0.0
  0
LINE
  5
2DF
  8
PATTERN_FILL
  6
STYLE_05
 62
     7
 10
-19.612375825753631
 20
100.2260482204549
 30
0.0
 11
-24.246925708081811
 21
103.9987723540501
 31
0.0
  0
LINE
  5
2E0
  8
PATTERN_FILL
  6
STYLE_05
 62
     7
 10
-18.612375825753631
 20
101.9580990280237
 30
0.0
 11
-23.2469257080818
 21
105.7308231616189
 31
0.0
  0
LINE
  5
2E1
  8
PATTERN_FILL
  6
STYLE_05
 62
     7
 10
-17.612375825753631
 20
103.69014983559261
 30
0.0
 11
-22.2469257080818
 21
107.4628739691878
 31
0.0
  0
LINE
  5
2E2
  8
PATTERN_FILL
  6
STYLE_05
 62
     7
 10
-16.612375825753631
 20
105.4222006431615
 30
0.0
 11
-21.246925708081811
 21
109.19492477675669
 31
0.0
  0
LINE
  5
2E3
  8
PATTERN_FILL
  6
STYLE_05
 62
     7
 10
-15.612375825753629
 20
107.1542514507304
 30
0.0
 11
-20.246925708081811
 21
110.9269755843256
 31
0.0
  0
LINE
  5
2E4
  8
PATTERN_FILL
  6
STYLE_05
 62
     7
 10
-14.612375825753629
 20
108.8863022582993
 30
0.0
 11
-19.246925708081811
 21
112.6590263918945
 31
0.0
  0
LINE
  5
2E5
  8
PATTERN_FILL
  6
STYLE_05
 62
     7
 10
-13.612375825753629
 20
110.61835306586811
 30
0.0
 11
-18.246925708081811
 21
114.3910771994633
 31
0.0
  0
LINE
  5
2E6
  8
PATTERN_FILL
  6
STYLE_05
 62
     7
 10
-12.612375825753629
 20
112.350403873437
 30
0.0
 11
-17.246925708081811
 21
116.12312800703219
 31
0.0
  0
LINE
  5
2E7
  8
PATTERN_FILL
  6
STYLE_05
 62
     7
 10
-11.612375825753629
 20
114.0824546810059
 30
0.0
 11
-16.2469257080818
 21
117.8551788146011
 31
0.0
  0
LINE
  5
2E8
  8
PATTERN_FILL
  6
STYLE_05
 62
     7
 10
-10.612375825753629
 20
115.8145054885748
 30
0.0
 11
-15.2469257080818
 21
119.58722962217
 31
0.0
  0
LINE
  5
2E9
  8
PATTERN_FILL
  6
STYLE_05
 62
     7
 10
-9.6123758257536327
 20
117.54655629614361
 30
0.0
 11
-14.2469257080818
 21
121.3192804297388
 31
0.0
  0
LINE
  5
2EA
  8
PATTERN_FILL
  6
STYLE_05
 62
     7
 10
-8.6123758257536327
 20
119.2786071037125
 30
0.0
 11
-13.2469257080818
 21
123.05133123730771
 31
0.0
  0
LINE
  5
2EB
  8
PATTERN_FILL
  6
STYLE_05
 62
     7
 10
-7.6123758257536309
 20
121.0106579112814
 30
0.0
 11
-12.2469257080818
 21
124.7833820448766
 31
0.0
  0
LINE
  5
2EC
  8
PATTERN_FILL
  6
STYLE_05
 62
     7
 10
-6.61237582575363
 20
122.7427087188503
 30
0.0
 11
-11.2469257080818
 21
126.5154328524455
 31
0.0
  0
LINE
  5
2ED
  8
PATTERN_FILL
  6
STYLE_05
 62
     7
 10
-5.61237582575363
 20
124.47475952641911
 30
0.0
 11
-10.2469257080818
 21
128.24748366001441
 31
0.0
  0
LINE
  5
2EE
  8
PATTERN_FILL
  6
STYLE_05
 62
     7
 10
-4.61237582575363
 20
126.206810333988
 30
0.0
 11
-9.2469257080818057
 21
129.97953446758319
 31
0.0
  0
LINE
  5
2EF
  8
PATTERN_FILL
  6
STYLE_05
 62
     7
 10
-3.6123758257536309
 20
127.9388611415569
 30
0.0
 11
-8.2469257080818021
 21
131.71158527515209
 31
0.0
  0
LINE
  5
2F0
  8
PATTERN_FILL
  6
STYLE_05
 62
     7
 10
-2.61237582575363
 20
129.67091194912581
 30
0.0
 11
-7.2469257080818039
 21
133.44363608272101
 31
0.0
  0
LINE
  5
2F1
  8
PATTERN_FILL
  6
STYLE_05
 62
     7
 10
-1.61237582575363
 20
131.40296275669471
 30
0.0
 11
-6.246925708081803
 21
135.17568689028991
 31
0.0
  0
LINE
  5
2F2
  8
PATTERN_FILL
  6
STYLE_05
 62
     7
 10
-6.9392650839476877
 20
137.07651991520959
 30
0.0
 11
0.8549635501122594
 21
132.57651991520959
 31
0.0
  0
LINE
  5
2F3
  8
PATTERN_FILL
  6
STYLE_05
 62
     7
 10
-1.2856752454614619
 20
147.6688247606229
 30
0.0
 11
7.2013737116260597
 21
142.76882476062289
 31
0.0
  0
LINE
  5
2F4
  8
PATTERN_FILL
  6
STYLE_05
 62
     7
 10
0.8549635501122594
 20
132.57651991520959
 30
0.0
 11
7.2013737116260597
 21
142.76882476062289
 31
0.0
  0
LINE
  5
2F5
  8
PATTERN_FILL
  6
STYLE_05
 62
     7
 10
-6.9392650839476877
 20
137.07651991520959
 30
0.0
 11
-1.2856752454614619
 21
147.6688247606229
 31
0.0
  0
LINE
  5
2F6
  8
PATTERN_FILL
  6
STYLE_05
 62
     7
 10
7.7143247545385369
 20
163.25728202874279
 30
0.0
 11
16.201373711626061
 21
158.35728202874279
 31
0.0
  0
LINE
  5
2F7
  8
PATTERN_FILL
  6
STYLE_05
 62
     7
 10
7.2013737116260597
 20
142.76882476062289
 30
0.0
 11
22.53949136087358
 21
169.3352238215885
 31
0.0
  0
LINE
  5
2F8
  8
PATTERN_FILL
  6
STYLE_05
 62
     7
 10
-1.2856752454614619
 20
147.6688247606229
 30
0.0
 11
14.052442403786079
 21
174.23522382158851
 31
0.0
  0
CIRCLE
  5
2F9
  8
PATTERN_FILL
  6
STYLE_05
 62
     7
 10
21.457849233082278
 20
177.26176470064721
 30
0.0
 40
7.999999999999992
  0
CIRCLE
  5
2FA
  8
PATTERN_FILL
  6
STYLE_05
 62
     7
 10
21.457849233082278
 20
177.26176470064721
 30
0.0
 40
3.9499999999999722
  0
CIRCLE
  5
2FB
  8
PATTERN_FILL
  6
STYLE_05
 62
     7
 10
21.457849233082278
 20
177.26176470064721
 30
0.0
 40
5.8499999999999641
  0
LINE
  5
2FC
  8
PATTERN_FILL
  6
STYLE_05
 62
     7
 10
25.904315217089461
 20
181.0632696990744
 30
0.0
 11
27.025951164870051
 21
183.00600014822601
 31
0.0
  0
LINE
  5
2FD
  8
PATTERN_FILL
  6
STYLE_05
 62
     7
 10
22.52681614233019
 20
183.01326969907441
 30
0.0
 11
23.648452090110752
 21
184.956000148226
 31
0.0
  0
LINE
  5
2FE
  8
PATTERN_FILL
  6
STYLE_05
 62
     7
 10
20.388882323834519
 20
183.0132696990741
 30
0.0
 11
19.267246376053571
 21
184.95600014822639
 31
0.0
  0
LINE
  5
2FF
  8
PATTERN_FILL
  6
STYLE_05
 62
     7
 10
17.0113832490748
 20
181.06326969907479
 30
0.0
 11
15.88974730129415
 21
183.00600014822669
 31
0.0
  0
LINE
  5
300
  8
PATTERN_FILL
  6
STYLE_05
 62
     7
 10
26.97328212633802
 20
179.21176470064711
 30
0.0
 11
29.21655402189829
 21
179.21176470064711
 31
0.0
  0
LINE
  5
301
  8
PATTERN_FILL
  6
STYLE_05
 62
     7
 10
26.973282126337111
 20
175.31176470064719
 30
0.0
 11
29.216554021897569
 21
175.3117647006471
 31
0.0
  0
LINE
  5
302
  8
PATTERN_FILL
  6
STYLE_05
 62
     7
 10
25.904315217089351
 20
173.4602597022201
 30
0.0
 11
27.025951164870278
 21
171.51752925306781
 31
0.0
  0
LINE
  5
303
  8
PATTERN_FILL
  6
STYLE_05
 62
     7
 10
22.526816142330532
 20
171.5102597022194
 30
0.0
 11
23.648452090111238
 21
169.56752925306751
 31
0.0
  0
LINE
  5
304
  8
PATTERN_FILL
  6
STYLE_05
 62
     7
 10
19.267246376053791
 20
169.5675292530683
 30
0.0
 11
20.38888232383438
 21
171.51025970222
 31
0.0
  0
LINE
  5
305
  8
PATTERN_FILL
  6
STYLE_05
 62
     7
 10
15.88974730129452
 20
171.51752925306829
 30
0.0
 11
17.011383249075109
 21
173.4602597022199
 31
0.0
  0
LINE
  5
306
  8
PATTERN_FILL
  6
STYLE_05
 62
     7
 10
13.699144444266929
 20
175.31176470064719
 30
0.0
 11
15.9424163398274
 21
175.31176470064719
 31
0.0
  0
LINE
  5
307
  8
PATTERN_FILL
  6
STYLE_05
 62
     7
 10
13.699144444266251
 20
179.21176470064711
 30
0.0
 11
15.942416339826609
 21
179.21176470064711
 31
0.0
  0
LINE
  5
308
  8
PATTERN_FILL
  6
STYLE_05
 62
     7
 10
-25.612375825753631
 20
89.833743375041621
 30
0.0
 11
-30.246925708081811
 21
93.606467508636854
 31
0.0
  0
LINE
  5
309
  8
PATTERN_FILL
  6
STYLE_05
 62
     7
 10
-24.612375825753631
 20
91.565794182610489
 30
0.0
 11
-29.246925708081811
 21
95.338518316205707
 31
0.0
  0
LINE
  5
30A
  8
PATTERN_FILL
  6
STYLE_05
 62
     7
 10
-23.612375825753631
 20
93.297844990179385
 30
0.0
 11
-28.2469257080818
 21
97.070569123774604
 31
0.0
  0
LINE
  5
30B
  8
PATTERN_FILL
  6
STYLE_05
 62
     7
 10
-22.612375825753631
 20
95.029895797748253
 30
0.0
 11
-27.2469257080818
 21
98.802619931343486
 31
0.0
  0
LINE
  5
30C
  8
PATTERN_FILL
  6
STYLE_05
 62
     7
 10
-21.612375825753631
 20
96.761946605317135
 30
0.0
 11
-26.246925708081811
 21
100.5346707389123
 31
0.0
  0
LINE
  5
30D
  8
PATTERN_FILL
  6
STYLE_05
 62
     7
 10
-20.612375825753642
 20
98.493997412886003
 30
0.0
 11
-25.246925708081811
 21
102.26672154648119
 31
0.0
  0
LINE
  5
30E
  8
PATTERN_FILL
  6
STYLE_05
 62
     7
 10
-19.612375825753631
 20
100.2260482204549
 30
0.0
 11
-24.246925708081811
 21
103.9987723540501
 31
0.0
  0
LINE
  5
30F
  8
PATTERN_FILL
  6
STYLE_05
 62
     7
 10
-18.612375825753631
 20
101.9580990280237
 30
0.0
 11
-23.2469257080818
 21
105.7308231616189
 31
0.0
  0
LINE
  5
310
  8
PATTERN_FILL
  6
STYLE_05
 62
     7
 10
-17.612375825753631
 20
103.69014983559261
 30
0.0
 11
-22.2469257080818
 21
107.4628739691878
 31
0.0
  0
LINE
  5
311
  8
PATTERN_FILL
  6
STYLE_05
 62
     7
 10
-16.612375825753631
 20
105.4222006431615
 30
0.0
 11
-21.246925708081811
 21
109.19492477675669
 31
0.0
  0
LINE
  5
312
  8
PATTERN_FILL
  6
STYLE_05
 62
     7
 10
-15.612375825753629
 20
107.1542514507304
 30
0.0
 11
-20.246925708081811
 21
110.9269755843256
 31
0.0
  0
LINE
  5
313
  8
PATTERN_FILL
  6
STYLE_05
 62
     7
 10
-14.612375825753629
 20
108.8863022582993
 30
0.0
 11
-19.246925708081811
 21
112.6590263918945
 31
0.0
  0
LINE
  5
314
  8
PATTERN_FILL
  6
STYLE_05
 62
     7
 10
-13.612375825753629
 20
110.61835306586811
 30
0.0
 11
-18.246925708081811
 21
114.3910771994633
 31
0.0
  0
LINE
  5
315
  8
PATTERN_FILL
  6
STYLE_05
 62
     7
 10
-12.612375825753629
 20
112.350403873437
 30
0.0
 11
-17.246925708081811
 21
116.12312800703219
 31
0.0
  0
LINE
  5
316
  8
PATTERN_FILL
  6
STYLE_05
 62
     7
 10
-11.612375825753629
 20
114.0824546810059
 30
0.0
 11
-16.2469257080818
 21
117.8551788146011
 31
0.0
  0
LINE
  5
317
  8
PATTERN_FILL
  6
STYLE_05
 62
     7
 10
-10.612375825753629
 20
115.8145054885748
 30
0.0
 11
-15.2469257080818
 21
119.58722962217
 31
0.0
  0
LINE
  5
318
  8
PATTERN_FILL
  6
STYLE_05
 62
     7
 10
-9.6123758257536327
 20
117.54655629614361
 30
0.0
 11
-14.2469257080818
 21
121.3192804297388
 31
0.0
  0
LINE
  5
319
  8
PATTERN_FILL
  6
STYLE_05
 62
     7
 10
-8.6123758257536327
 20
119.2786071037125
 30
0.0
 11
-13.2469257080818
 21
123.05133123730771
 31
0.0
  0
LINE
  5
31A
  8
PATTERN_FILL
  6
STYLE_05
 62
     7
 10
-7.6123758257536309
 20
121.0106579112814
 30
0.0
 11
-12.2469257080818
 21
124.7833820448766
 31
0.0
  0
LINE
  5
31B
  8
PATTERN_FILL
  6
STYLE_05
 62
     7
 10
-6.61237582575363
 20
122.7427087188503
 30
0.0
 11
-11.2469257080818
 21
126.5154328524455
 31
0.0
  0
LINE
  5
31C
  8
PATTERN_FILL
  6
STYLE_05
 62
     7
 10
-5.61237582575363
 20
124.47475952641911
 30
0.0
 11
-10.2469257080818
 21
128.24748366001441
 31
0.0
  0
LINE
  5
31D
  8
PATTERN_FILL
  6
STYLE_05
 62
     7
 10
-4.61237582575363
 20
126.206810333988
 30
0.0
 11
-9.2469257080818057
 21
129.97953446758319
 31
0.0
  0
LINE
  5
31E
  8
PATTERN_FILL
  6
STYLE_05
 62
     7
 10
-3.6123758257536309
 20
127.9388611415569
 30
0.0
 11
-8.2469257080818021
 21
131.71158527515209
 31
0.0
  0
LINE
  5
31F
  8
PATTERN_FILL
  6
STYLE_05
 62
     7
 10
-2.61237582575363
 20
129.67091194912581
 30
0.0
 11
-7.2469257080818039
 21
133.44363608272101
 31
0.0
  0
LINE
  5
320
  8
PATTERN_FILL
  6
STYLE_05
 62
     7
 10
-1.61237582575363
 20
131.40296275669471
 30
0.0
 11
-6.246925708081803
 21
135.17568689028991
 31
0.0
  0
LINE
  5
321
  8
PATTERN_FILL
  6
STYLE_05
 62
     7
 10
-26.612375825753631
 20
88.101692567472739
 30
0.0
 11
-31.246925708081811
 21
91.874416701067958
 31
0.0
  0
LINE
  5
322
  8
PATTERN_FILL
  6
STYLE_05
 62
     7
 10
-27.612375825753631
 20
86.369641759903871
 30
0.0
 11
-32.246925708081797
 21
90.142365893499075
 31
0.0
  0
LINE
  5
323
  8
PATTERN_FILL
  6
STYLE_05
 62
     7
 10
-28.612375825753631
 20
84.637590952335017
 30
0.0
 11
-33.246925708081797
 21
88.410315085930193
 31
0.0
  0
LINE
  5
324
  8
PATTERN_FILL
  6
STYLE_05
 62
     7
 10
-29.612375825753631
 20
82.905540144766107
 30
0.0
 11
-34.246925708081811
 21
86.678264278361326
 31
0.0
  0
LINE
  5
325
  8
PATTERN_FILL
  6
STYLE_05
 62
     7
 10
-30.612375825753631
 20
81.173489337197253
 30
0.0
 11
-34.55000000029294
 21
84.378885789818781
 31
0.0
  0
LINE
  5
326
  8
PATTERN_FILL
  6
STYLE_05
 62
     7
 10
-31.612375825753631
 20
79.441438529628343
 30
0.0
 11
-34.55000000029294
 21
81.832791713888341
 31
0.0
  0
LINE
  5
327
  8
PATTERN_FILL
  6
STYLE_05
 62
     7
 10
-32.612375825753631
 20
77.709387722059475
 30
0.0
 11
-34.55000000029294
 21
79.286697637957886
 31
0.0
  0
LINE
  5
328
  8
PATTERN_FILL
  6
STYLE_05
 62
     7
 10
-33.612375825753631
 20
75.977336914490593
 30
0.0
 11
-34.55000000029294
 21
76.740603562027403
 31
0.0
  0
LINE
  5
329
  8
PATTERN_FILL
  6
STYLE_05
 62
     7
 10
-0.4873758257536593
 20
133.35151991520971
 30
0.0
 11
-34.612375825753631
 21
74.245286106921697
 31
0.0
  0
LINE
  5
32A
  8
PATTERN_FILL
  6
STYLE_05
 62
     7
 10
-5.5969257080817982
 20
136.3015199152097
 30
0.0
 11
-34.55000000029294
 21
86.153324205783647
 31
0.0
  0
LINE
  5
32B
  8
PATTERN_FILL
  6
CONTINUOUS
 62
     7
 10
-92.663205134693811
 20
176.16487083061261
 30
0.0
 11
-95.510465140886296
 21
181.09646982369679
 31
0.0
  0
LINE
  5
32C
  8
PATTERN_FILL
  6
CONTINUOUS
 62
     7
 10
-92.515608368685506
 20
177.50922573285331
 30
0.0
 11
-94.272421260839579
 21
180.55211492145611
 31
0.0
  0
LINE
  5
32D
  8
PATTERN_FILL
  6
CONTINUOUS
 62
     7
 10
-97.622607182750372
 20
173.48739867175649
 30
0.0
 11
-92.606773394926776
 21
176.3832916593669
 31
0.0
  0
LINE
  5
32E
  8
PATTERN_FILL
  6
CONTINUOUS
 62
     7
 10
-98.520223288883315
 20
173.89292020195521
 30
0.0
 11
-92.509157288793887
 21
177.3634107752234
 31
0.0
  0
LINE
  5
32F
  8
PATTERN_FILL
  6
CONTINUOUS
 62
     7
 10
-99.203582211956544
 20
174.42214317446911
 30
0.0
 11
-92.625798365720627
 21
178.21982844876459
 31
0.0
  0
LINE
  5
330
  8
PATTERN_FILL
  6
CONTINUOUS
 62
     7
 10
-100.34076444866849
 20
176.53687199609601
 30
0.0
 11
-93.888616129008653
 21
180.262021565303
 31
0.0
  0
LINE
  5
331
  8
PATTERN_FILL
  6
CONTINUOUS
 62
     7
 10
-100.4045234937682
 20
177.42382112494781
 30
0.0
 11
-94.624857083909021
 21
180.7607130825063
 31
0.0
  0
LINE
  5
332
  8
PATTERN_FILL
  6
CONTINUOUS
 62
     7
 10
-100.22439100969071
 20
178.45158109382311
 30
0.0
 11
-95.604989567986408
 21
181.11859375968601
 31
0.0
  0
LINE
  5
333
  8
PATTERN_FILL
  6
CONTINUOUS
 62
     7
 10
-97.575477147657423
 20
173.4731755376641
 30
0.0
 11
-100.2976776503085
 21
178.18816511664531
 31
0.0
  0
LINE
  5
334
  8
PATTERN_FILL
  6
CONTINUOUS
 62
     7
 10
-96.559278108157883
 20
173.3130671706482
 30
0.0
 11
-99.928236043752918
 21
179.1482734836612
 31
0.0
  0
LINE
  5
335
  8
PATTERN_FILL
  6
CONTINUOUS
 62
     7
 10
-95.679481465792691
 20
173.3892146857433
 30
0.0
 11
-99.422392040063002
 21
179.87212596856619
 31
0.0
  0
LINE
  5
336
  8
PATTERN_FILL
  6
CONTINUOUS
 62
     7
 10
-94.8966831808347
 20
173.63336828411821
 30
0.0
 11
-98.819549678965927
 21
180.42797237019121
 31
0.0
  0
LINE
  5
337
  8
PATTERN_FILL
  6
CONTINUOUS
 62
     7
 10
-94.19753192147499
 20
174.0224027807314
 30
0.0
 11
-98.133060292270514
 21
180.83893787357809
 31
0.0
  0
LINE
  5
338
  8
PATTERN_FILL
  6
CONTINUOUS
 62
     7
 10
-93.581187495897538
 20
174.55486292066939
 30
0.0
 11
-97.363764071792843
 21
181.10647773363999
 31
0.0
  0
LINE
  5
339
  8
PATTERN_FILL
  6
CONTINUOUS
 62
     7
 10
-93.058653750498351
 20
175.24980792496879
 30
0.0
 11
-96.500657171136893
 21
181.2115327293406
 31
0.0
  0
LINE
  5
33A
  8
PATTERN_FILL
  6
CONTINUOUS
 62
     7
 10
-96.322815184230294
 20
173.3140735012893
 30
0.0
 11
-93.106565393446928
 21
175.17097618377909
 31
0.0
  0
LINE
  5
33B
  8
PATTERN_FILL
  6
CONTINUOUS
 62
     7
 10
-99.726492092803923
 20
175.04400144470341
 30
0.0
 11
-92.902888484873259
 21
178.98361082458541
 31
0.0
  0
LINE
  5
33C
  8
PATTERN_FILL
  6
CONTINUOUS
 62
     7
 10
-100.106441019233
 20
175.74839826045459
 30
0.0
 11
-93.322939558444105
 21
179.6648546548893
 31
0.0
  0
LINE
  5
33D
  8
PATTERN_FILL
  6
CONTINUOUS
 62
     7
 10
-99.480151093625295
 20
179.80502864040861
 30
0.0
 11
-97.149229484051943
 21
181.15078685915569
 31
0.0
  0
LINE
  5
33E
  8
PATTERN_FILL
  6
CONTINUOUS
 62
     7
 10
-98.889317729466185
 20
174.14881417840269
 30
0.0
 11
-100.3694777145548
 21
176.71252647590671
 31
0.0
  0
LINE
  5
33F
  8
PATTERN_FILL
  6
CONTINUOUS
 62
     7
 10
17.663205134107969
 20
176.16487083061261
 30
0.0
 11
20.510465140300472
 21
181.09646982369679
 31
0.0
  0
LINE
  5
340
  8
PATTERN_FILL
  6
CONTINUOUS
 62
     7
 10
17.51560836809967
 20
177.50922573285331
 30
0.0
 11
19.272421260253751
 21
180.55211492145611
 31
0.0
  0
LINE
  5
341
  8
PATTERN_FILL
  6
CONTINUOUS
 62
     7
 10
22.622607182164518
 20
173.48739867175649
 30
0.0
 11
17.606773394340951
 21
176.3832916593669
 31
0.0
  0
LINE
  5
342
  8
PATTERN_FILL
  6
CONTINUOUS
 62
     7
 10
23.520223288297451
 20
173.89292020195521
 30
0.0
 11
17.509157288208051
 21
177.3634107752234
 31
0.0
  0
LINE
  5
343
  8
PATTERN_FILL
  6
CONTINUOUS
 62
     7
 10
24.203582211370691
 20
174.42214317446911
 30
0.0
 11
17.62579836513477
 21
178.21982844876459
 31
0.0
  0
LINE
  5
344
  8
PATTERN_FILL
  6
CONTINUOUS
 62
     7
 10
25.340764448082648
 20
176.53687199609601
 30
0.0
 11
18.888616128422779
 21
180.262021565303
 31
0.0
  0
LINE
  5
345
  8
PATTERN_FILL
  6
CONTINUOUS
 62
     7
 10
25.404523493182339
 20
177.42382112494781
 30
0.0
 11
19.62485708332316
 21
180.7607130825063
 31
0.0
  0
LINE
  5
346
  8
PATTERN_FILL
  6
CONTINUOUS
 62
     7
 10
25.22439100910491
 20
178.45158109382311
 30
0.0
 11
20.604989567400551
 21
181.11859375968601
 31
0.0
  0
LINE
  5
347
  8
PATTERN_FILL
  6
CONTINUOUS
 62
     7
 10
22.57547714707157
 20
173.4731755376641
 30
0.0
 11
25.297677649722651
 21
178.18816511664531
 31
0.0
  0
LINE
  5
348
  8
PATTERN_FILL
  6
CONTINUOUS
 62
     7
 10
21.559278107572009
 20
173.3130671706482
 30
0.0
 11
24.928236043167079
 21
179.1482734836612
 31
0.0
  0
LINE
  5
349
  8
PATTERN_FILL
  6
CONTINUOUS
 62
     7
 10
20.67948146520682
 20
173.3892146857433
 30
0.0
 11
24.422392039477138
 21
179.87212596856619
 31
0.0
  0
LINE
  5
34A
  8
PATTERN_FILL
  6
CONTINUOUS
 62
     7
 10
19.896683180248839
 20
173.63336828411821
 30
0.0
 11
23.819549678380088
 21
180.42797237019121
 31
0.0
  0
LINE
  5
34B
  8
PATTERN_FILL
  6
CONTINUOUS
 62
     7
 10
19.197531920889151
 20
174.0224027807314
 30
0.0
 11
23.133060291684661
 21
180.83893787357809
 31
0.0
  0
LINE
  5
34C
  8
PATTERN_FILL
  6
CONTINUOUS
 62
     7
 10
18.581187495311681
 20
174.55486292066939
 30
0.0
 11
22.363764071207001
 21
181.10647773363999
 31
0.0
  0
LINE
  5
34D
  8
PATTERN_FILL
  6
CONTINUOUS
 62
     7
 10
18.058653749912491
 20
175.24980792496879
 30
0.0
 11
21.500657170551062
 21
181.2115327293406
 31
0.0
  0
LINE
  5
34E
  8
PATTERN_FILL
  6
CONTINUOUS
 62
     7
 10
21.322815183644451
 20
173.3140735012893
 30
0.0
 11
18.106565392861071
 21
175.17097618377909
 31
0.0
  0
LINE
  5
34F
  8
PATTERN_FILL
  6
CONTINUOUS
 62
     7
 10
24.72649209221807
 20
175.04400144470341
 30
0.0
 11
17.902888484287431
 21
178.98361082458541
 31
0.0
  0
LINE
  5
350
  8
PATTERN_FILL
  6
CONTINUOUS
 62
     7
 10
25.106441018647232
 20
175.74839826045459
 30
0.0
 11
18.32293955785828
 21
179.6648546548893
 31
0.0
  0
LINE
  5
351
  8
PATTERN_FILL
  6
CONTINUOUS
 62
     7
 10
24.480151093039431
 20
179.80502864040861
 30
0.0
 11
22.149229483466101
 21
181.15078685915569
 31
0.0
  0
LINE
  5
352
  8
PATTERN_FILL
  6
CONTINUOUS
 62
     7
 10
23.889317728880329
 20
174.14881417840269
 30
0.0
 11
25.369477713969001
 21
176.71252647590671
 31
0.0
  0
LINE
  5
353
  8
SPEC
  6
CONTINUOUS
 62
     7
 10
-147.49999999999989
 20
507.06362999999988
 30
0.0
 11
295.0
 21
507.06362999999988
 31
0.0
  0
LINE
  5
354
  8
SPEC
  6
CONTINUOUS
 62
     7
 10
-147.49999999999989
 20
495.81362999999988
 30
0.0
 11
295.0
 21
495.81362999999988
 31
0.0
  0
LINE
  5
355
  8
SPEC
  6
CONTINUOUS
 62
     7
 10
-147.49999999999989
 20
450.81362999999988
 30
0.0
 11
295.0
 21
450.81362999999988
 31
0.0
  0
LINE
  5
356
  8
SPEC
  6
CONTINUOUS
 62
     7
 10
-147.49999999999989
 20
462.06362999999988
 30
0.0
 11
295.0
 21
462.06362999999988
 31
0.0
  0
LINE
  5
357
  8
SPEC
  6
CONTINUOUS
 62
     7
 10
-147.49999999999989
 20
473.31362999999988
 30
0.0
 11
295.0
 21
473.31362999999988
 31
0.0
  0
LINE
  5
358
  8
SPEC
  6
CONTINUOUS
 62
     7
 10
-147.49999999999989
 20
439.56362999999988
 30
0.0
 11
295.0
 21
439.56362999999988
 31
0.0
  0
LINE
  5
359
  8
SPEC
  6
CONTINUOUS
 62
     7
 10
-147.49999999999989
 20
417.06362999999988
 30
0.0
 11
295.0
 21
417.06362999999988
 31
0.0
  0
LINE
  5
35A
  8
SPEC
  6
CONTINUOUS
 62
     7
 10
-147.49999999999989
 20
428.31362999999988
 30
0.0
 11
295.0
 21
428.31362999999988
 31
0.0
  0
LINE
  5
35B
  8
SPEC
  6
CONTINUOUS
 62
     7
 10
-147.49999999999989
 20
405.81362999999988
 30
0.0
 11
295.0
 21
405.81362999999988
 31
0.0
  0
LINE
  5
35C
  8
SPEC
  6
CONTINUOUS
 62
     7
 10
-147.49999999999989
 20
394.56362999999988
 30
0.0
 11
295.0
 21
394.56362999999988
 31
0.0
  0
LINE
  5
35D
  8
SPEC
  6
CONTINUOUS
 62
     7
 10
-147.49999999999989
 20
484.56362999999988
 30
0.0
 11
295.0
 21
484.56362999999988
 31
0.0
  0
TEXT
  5
35E
  8
SPEC
 62
     7
 10
-48.127074084484001
 20
498.39578383497718
 30
0.0
 40
5.700933749999999
  1
コンデンサー型 
 41
0.7
 11
-48.127074084484001
 21
504.09671758497711
 31
0.0
 73
     3
  0
LINE
  5
35F
  8
SPEC
  6
CONTINUOUS
 62
     7
 10
-147.49999999999989
 20
507.06362999999988
 30
0.0
 11
-147.49999999999989
 21
360.81362999999988
 31
0.0
  0
TEXT
  5
360
  8
SPEC
 62
     7
 10
-143.74999999999989
 20
511.24343999999979
 30
0.0
 40
7.3297851562499989
  1
仕様
 41
0.7
 11
-143.74999999999989
 21
518.57322515624992
 31
0.0
 73
     3
  0
LINE
  5
361
  8
SPEC
  6
CONTINUOUS
 62
     7
 10
-50.0
 20
507.06362999999988
 30
0.0
 11
-50.0
 21
360.81362999999988
 31
0.0
  0
TEXT
  5
362
  8
SPEC
 62
     7
 10
-145.0197742660005
 20
498.56238159993882
 30
0.0
 40
5.700933749999999
  1
形式
 41
0.7
 11
-145.0197742660005
 21
504.26331534993869
 31
0.0
 73
     3
  0
TEXT
  5
363
  8
SPEC
 62
     7
 10
-47.887812093355123
 20
487.63082664377168
 30
0.0
 40
5.700933749999999
  1
カーディオイド
 41
0.7
 11
-47.887812093355123
 21
493.33176039377162
 31
0.0
 73
     3
  0
TEXT
  5
364
  8
SPEC
 62
     7
 10
-144.96131248116669
 20
487.37465711001249
 30
0.0
 40
5.700933749999999
  1
指向特性
 41
0.7
 11
-144.96131248116669
 21
493.07559086001248
 31
0.0
 73
     3
  0
TEXT
  5
365
  8
SPEC
 62
     7
 10
-47.357627176609249
 20
475.94958406080423
 30
0.0
 40
5.700933749999999
  1
60Hz～20kHz
 41
0.7
 11
-47.357627176609249
 21
481.6505178108041
 31
0.0
 73
     3
  0
TEXT
  5
366
  8
SPEC
 62
     7
 10
-144.83944115332471
 20
476.27386479285428
 30
0.0
 40
5.700933749999999
  1
周波数特性
 41
0.7
 11
-144.83944115332471
 21
481.97479854285427
 31
0.0
 73
     3
  0
TEXT
  5
367
  8
SPEC
 62
     7
 10
-47.180235631088763
 20
465.08920630931982
 30
0.0
 40
5.700933749999999
  1
-46dBV re 1V/Pa
 41
0.7
 11
-47.180235631088763
 21
470.79014005931992
 31
0.0
 73
     3
  0
TEXT
  5
368
  8
SPEC
 62
     7
 10
-145.20801113582789
 20
465.128551252644
 30
0.0
 40
5.700933749999999
  1
閉回路感度
 41
0.7
 11
-145.20801113582789
 21
470.82948500264388
 31
0.0
 73
     3
  0
TEXT
  5
369
  8
SPEC
 62
     7
 10
-47.714537682776992
 20
453.73011171036973
 30
0.0
 40
5.700933749999999
  1
132dB SPL(THD3%%%) 
 41
0.7
 11
-47.714537682776992
 21
459.43104546036972
 31
0.0
 73
     3
  0
TEXT
  5
36A
  8
SPEC
 62
     7
 10
-144.777432733594
 20
453.74672619114511
 30
0.0
 40
5.700933749999999
  1
最大音圧レベル
 41
0.7
 11
-144.777432733594
 21
459.4476599411451
 31
0.0
 73
     3
  0
TEXT
  5
36B
  8
SPEC
 62
     7
 10
-47.265591609661513
 20
442.2026619227077
 30
0.0
 40
5.700933749999999
  1
31dB SPL(Aウェイト）
 41
0.7
 11
-47.265591609661513
 21
447.90359567270758
 31
0.0
 73
     3
  0
TEXT
  5
36C
  8
SPEC
 62
     7
 10
-144.8753543902049
 20
442.62563481761521
 30
0.0
 40
5.700933749999999
  1
等価雑音レベル
 41
0.7
 11
-144.8753543902049
 21
448.3265685676152
 31
0.0
 73
     3
  0
TEXT
  5
36D
  8
SPEC
 62
     7
 10
-47.334272512484382
 20
431.05439243732832
 30
0.0
 40
5.700933749999999
  1
200\U+03A9以下
 41
0.7
 11
-47.334272512484382
 21
436.75532618732831
 31
0.0
 73
     3
  0
TEXT
  5
36E
  8
SPEC
 62
     7
 10
-145.20553781484529
 20
431.13373860751079
 30
0.0
 40
5.700933749999999
  1
インピーダンス
 41
0.7
 11
-145.20553781484529
 21
436.83467235751078
 31
0.0
 73
     3
  0
TEXT
  5
36F
  8
SPEC
 62
     7
 10
-48.688853495729411
 20
419.97257177274918
 30
0.0
 40
5.700933749999999
  1
ミニXLR 3ピン(メス)
 41
0.7
 11
-48.688853495729411
 21
425.67350552274922
 31
0.0
 73
     3
  0
TEXT
  5
370
  8
SPEC
 62
     7
 10
-145.607872712757
 20
420.10943803158472
 30
0.0
 40
5.700933749999999
  1
コネクター
 41
0.7
 11
-145.607872712757
 21
425.81037178158471
 31
0.0
 73
     3
  0
TEXT
  5
371
  8
SPEC
 62
     7
 10
-47.350943044159898
 20
408.63588219743917
 30
0.0
 40
5.700933749999999
  1
別売のAKGワイヤレスシステムのボディパック型 送信機、またはポータ ブルミキサー(B29L）に対応
 41
0.7
 11
-47.350943044159898
 21
414.33681594743922
 31
0.0
 73
     3
  0
TEXT
  5
372
  8
SPEC
 62
     7
 10
-145.02972737948639
 20
408.82828904187858
 30
0.0
 40
5.700933749999999
  1
電源
 41
0.7
 11
-145.02972737948639
 21
414.52922279187851
 31
0.0
 73
     3
  0
LINE
  5
373
  8
SPEC
  6
CONTINUOUS
 62
     7
 10
-147.49999999999989
 20
383.31362999999988
 30
0.0
 11
295.0
 21
383.31362999999988
 31
0.0
  0
LINE
  5
374
  8
SPEC
  6
CONTINUOUS
 62
     7
 10
-147.49999999999989
 20
360.81362999999988
 30
0.0
 11
295.0
 21
360.81362999999988
 31
0.0
  0
TEXT
  5
375
  8
SPEC
 62
     7
 10
-47.466139759053711
 20
374.92710106922061
 30
0.0
 40
5.7009440104166647
  1
接続ケーブル(1.5m、ミニXLR対ミニXLR)、送信機ホルダー
 41
0.7
 11
-47.466139759053711
 21
380.62804507963722
 31
0.0
 73
     3
  0
TEXT
  5
376
  8
SPEC
 62
     7
 10
-47.186948009108967
 20
397.29960167936122
 30
0.0
 40
5.7009440104166647
  1
47(W)\U+00D7212(H)\U+00D757(D)mm(突起は含まず) 
 41
0.7
 11
-47.186948009108967
 21
403.00054568977788
 31
0.0
 73
     3
  0
TEXT
  5
377
  8
SPEC
 62
     7
 10
-145.13558990403209
 20
397.86254716180332
 30
0.0
 40
5.7009440104166647
  1
寸法
 41
0.7
 11
-145.13558990403209
 21
403.56349117221993
 31
0.0
 73
     3
  0
TEXT
  5
378
  8
SPEC
 62
     7
 10
-145.00726976967661
 20
386.42558443192331
 30
0.0
 40
5.7009440104166647
  1
重量
 41
0.7
 11
-145.00726976967661
 21
392.12652844233992
 31
0.0
 73
     3
  0
TEXT
  5
379
  8
SPEC
 62
     7
 10
-144.84213594776941
 20
375.28472050441269
 30
0.0
 40
5.7009440104166647
  1
付属品
 41
0.7
 11
-144.84213594776941
 21
380.98566451482941
 31
0.0
 73
     3
  0
TEXT
  5
37A
  8
SPEC
 62
     7
 10
-47.49257429996959
 20
386.10739732175011
 30
0.0
 40
5.7009440104166647
  1
約75g(ケーブル含む)
 41
0.7
 11
-47.49257429996959
 21
391.80834133216678
 31
0.0
 73
     3
  0
TEXT
  5
37B
  8
SPEC
 62
     7
 10
-47.91792387991709
 20
364.00695572097061
 30
0.0
 40
5.7009440104166647
  1
ウインドスクリーン(W44）、マイクポーチ
 41
0.7
 11
-47.91792387991709
 21
369.70789973138727
 31
0.0
 73
     3
  0
LINE
  5
37C
  8
SPEC
  6
CONTINUOUS
 62
     7
 10
295.0
 20
507.06362999999988
 30
0.0
 11
295.0
 21
360.81362999999988
 31
0.0
  0
TEXT
  5
37D
  8
DIMNSIONS
 62
     7
 10
40.0
 20
-206.12790000000001
 30
0.0
 40
7.3297851562499989
  1
(単位：mm)
 41
0.7
 11
40.0
 21
-198.79811484375
 31
0.0
 73
     3
  0
LINE
  5
37E
  8
DIMNSIONS
  6
CONTINUOUS
 62
     7
 10
113.493572197189
 20
-123.7101479406595
 30
0.0
 11
113.493572197189
 21
-107.0
 31
0.0
  0
TEXT
  5
37F
  8
DIMNSIONS
 62
     7
 10
23.833008145766339
 20
-110.0183333333333
 30
0.0
 40
8.1442057291666661
  1
1500
 41
0.7
 11
23.833008145766339
 21
-101.8741276041666
 31
0.0
 73
     3
  0
LINE
  5
380
  8
DIMNSIONS
  6
CONTINUOUS
 62
     7
 10
-23.97508053359077
 20
-5.3499999999999934
 30
0.0
 11
-0.7818949863975462
 21
-5.3499999999999934
 31
0.0
  0
LINE
  5
381
  8
DIMNSIONS
  6
CONTINUOUS
 62
     7
 10
-6.25
 20
-5.3499999999999934
 30
0.0
 11
-6.25
 21
-102.5
 31
0.0
  0
LINE
  5
382
  8
DIMNSIONS
  6
CONTINUOUS
 62
     7
 10
-6.25
 20
-5.3499999999999934
 30
0.0
 11
-3.6977839420935501
 21
-14.875
 31
0.0
  0
LINE
  5
383
  8
DIMNSIONS
  6
CONTINUOUS
 62
     7
 10
-6.25
 20
-5.3499999999999934
 30
0.0
 11
-8.802216057906449
 21
-14.875
 31
0.0
  0
LINE
  5
384
  8
DIMNSIONS
  6
CONTINUOUS
 62
     7
 10
-80.395000000292939
 20
-18.75
 30
0.0
 11
-118.5
 21
-18.75
 31
0.0
  0
LINE
  5
385
  8
DIMNSIONS
  6
CONTINUOUS
 62
     7
 10
-43.500000000292921
 20
193.25
 30
0.0
 11
-118.5
 21
193.25
 31
0.0
  0
LINE
  5
386
  8
DIMNSIONS
  6
CONTINUOUS
 62
     7
 10
-112.5
 20
-18.75
 30
0.0
 11
-112.5
 21
193.25
 31
0.0
  0
LINE
  5
387
  8
DIMNSIONS
  6
CONTINUOUS
 62
     7
 10
-112.5
 20
-18.75
 30
0.0
 11
-114.51011938545069
 21
-11.248132324218741
 31
0.0
  0
LINE
  5
388
  8
DIMNSIONS
  6
CONTINUOUS
 62
     7
 10
-112.5
 20
-18.75
 30
0.0
 11
-110.48988061454919
 21
-11.248132324218741
 31
0.0
  0
LINE
  5
389
  8
DIMNSIONS
  6
CONTINUOUS
 62
     7
 10
-112.5
 20
193.25
 30
0.0
 11
-110.48988061454919
 21
185.7481323242188
 31
0.0
  0
LINE
  5
38A
  8
DIMNSIONS
  6
CONTINUOUS
 62
     7
 10
-112.5
 20
193.25
 30
0.0
 11
-114.51011938545069
 21
185.7481323242188
 31
0.0
  0
TEXT
  5
38B
  8
DIMNSIONS
 62
     7
 10
-115.4816666666666
 20
79.3125
 30
0.0
 40
8.1442057291666661
  1
212
 50
90.0
 41
0.7
 11
-123.6258723958333
 21
79.3125
 31
0.0
 73
     3
  0
LINE
  5
38C
  8
DIMNSIONS
  6
CONTINUOUS
 62
     7
 10
-75.495000000292933
 20
4.25
 30
0.0
 11
-75.495000000292933
 21
-74.75
 31
0.0
  0
LINE
  5
38D
  8
DIMNSIONS
  6
CONTINUOUS
 62
     7
 10
-28.495000000292929
 20
2.2750000002999959
 30
0.0
 11
-28.495000000292929
 21
-74.75
 31
0.0
  0
LINE
  5
38E
  8
DIMNSIONS
  6
CONTINUOUS
 62
     7
 10
-75.495000000292933
 20
-68.75
 30
0.0
 11
-28.495000000292929
 21
-68.75
 31
0.0
  0
LINE
  5
38F
  8
DIMNSIONS
  6
CONTINUOUS
 62
     7
 10
-75.495000000292933
 20
-68.75
 30
0.0
 11
-67.993132324511677
 21
-66.73988061454925
 31
0.0
  0
LINE
  5
390
  8
DIMNSIONS
  6
CONTINUOUS
 62
     7
 10
-75.495000000292933
 20
-68.75
 30
0.0
 11
-67.993132324511677
 21
-70.760119385450736
 31
0.0
  0
LINE
  5
391
  8
DIMNSIONS
  6
CONTINUOUS
 62
     7
 10
-28.495000000292929
 20
-68.75
 30
0.0
 11
-35.996867676074189
 21
-70.760119385450736
 31
0.0
  0
LINE
  5
392
  8
DIMNSIONS
  6
CONTINUOUS
 62
     7
 10
-28.495000000292929
 20
-68.75
 30
0.0
 11
-35.996867676074189
 21
-66.73988061454925
 31
0.0
  0
TEXT
  5
393
  8
DIMNSIONS
 62
     7
 10
-57.28666666695959
 20
-65.768333333333331
 30
0.0
 40
8.1442057291666661
  1
47
 41
0.7
 11
-57.28666666695959
 21
-57.624127604166652
 31
0.0
 73
     3
  0
LINE
  5
394
  8
DIMNSIONS
  6
CONTINUOUS
 62
     7
 10
-68.995000000292904
 20
243.7500000003204
 30
0.0
 11
-118.5
 21
243.7500000003204
 31
0.0
  0
LINE
  5
395
  8
DIMNSIONS
  6
CONTINUOUS
 62
     7
 10
-56.295000000292937
 20
300.75000000052052
 30
0.0
 11
-118.5
 21
300.75000000052052
 31
0.0
  0
LINE
  5
396
  8
DIMNSIONS
  6
CONTINUOUS
 62
     7
 10
-112.5
 20
243.7500000003204
 30
0.0
 11
-112.5
 21
300.75000000052052
 31
0.0
  0
LINE
  5
397
  8
DIMNSIONS
  6
CONTINUOUS
 62
     7
 10
-112.5
 20
243.7500000003204
 30
0.0
 11
-114.51011938545069
 21
251.25186767610171
 31
0.0
  0
LINE
  5
398
  8
DIMNSIONS
  6
CONTINUOUS
 62
     7
 10
-112.5
 20
243.7500000003204
 30
0.0
 11
-110.48988061454919
 21
251.25186767610171
 31
0.0
  0
LINE
  5
399
  8
DIMNSIONS
  6
CONTINUOUS
 62
     7
 10
-112.5
 20
300.75000000052052
 30
0.0
 11
-110.48988061454919
 21
293.24813232473929
 31
0.0
  0
LINE
  5
39A
  8
DIMNSIONS
  6
CONTINUOUS
 62
     7
 10
-112.5
 20
300.75000000052052
 30
0.0
 11
-114.51011938545069
 21
293.24813232473929
 31
0.0
  0
TEXT
  5
39B
  8
DIMNSIONS
 62
     7
 10
-115.4816666666666
 20
266.95833333375373
 30
0.0
 40
8.1442057291666661
  1
57
 50
90.0
 41
0.7
 11
-123.6258723958333
 21
266.95833333375373
 31
0.0
 73
     3
  0
LINE
  5
39C
  8
DIMNSIONS
  6
CONTINUOUS
 62
     7
 10
-80.395000000292939
 20
-18.75
 30
0.0
 11
-99.750000000000014
 21
-18.75
 31
0.0
  0
LINE
  5
39D
  8
DIMNSIONS
  6
CONTINUOUS
 62
     7
 10
-80.395000000292939
 20
22.25
 30
0.0
 11
-99.750000000000014
 21
22.25
 31
0.0
  0
LINE
  5
39E
  8
DIMNSIONS
  6
CONTINUOUS
 62
     7
 10
-93.75
 20
-18.75
 30
0.0
 11
-93.75
 21
22.25
 31
0.0
  0
LINE
  5
39F
  8
DIMNSIONS
  6
CONTINUOUS
 62
     7
 10
-93.75
 20
-18.75
 30
0.0
 11
-95.760119385450764
 21
-11.248132324218741
 31
0.0
  0
LINE
  5
3A0
  8
DIMNSIONS
  6
CONTINUOUS
 62
     7
 10
-93.75
 20
-18.75
 30
0.0
 11
-91.739880614549264
 21
-11.248132324218741
 31
0.0
  0
LINE
  5
3A1
  8
DIMNSIONS
  6
CONTINUOUS
 62
     7
 10
-93.75
 20
22.25
 30
0.0
 11
-91.739880614549264
 21
14.748132324218741
 31
0.0
  0
LINE
  5
3A2
  8
DIMNSIONS
  6
CONTINUOUS
 62
     7
 10
-93.75
 20
22.25
 30
0.0
 11
-95.760119385450764
 21
14.748132324218741
 31
0.0
  0
TEXT
  5
3A3
  8
DIMNSIONS
 62
     7
 10
-96.731666666666655
 20
-3.5416666666666572
 30
0.0
 40
8.1442057291666661
  1
41
 50
90.0
 41
0.7
 11
-104.8758723958333
 21
-3.5416666666666559
 31
0.0
 73
     3
  0
LINE
  5
3A4
  8
DIMNSIONS
  6
CONTINUOUS
 62
     7
 10
113.493572197189
 20
-112.5
 30
0.0
 11
3.75
 21
-112.5
 31
0.0
  0
LINE
  5
3A5
  8
DIMNSIONS
  6
CONTINUOUS
 62
     7
 10
113.493572197189
 20
-112.5
 30
0.0
 11
103.968572197189
 21
-115.05221605790641
 31
0.0
  0
LINE
  5
3A6
  8
DIMNSIONS
  6
CONTINUOUS
 62
     7
 10
113.493572197189
 20
-112.5
 30
0.0
 11
103.968572197189
 21
-109.94778394209349
 31
0.0
  0
ARC
  5
3A7
  8
DIMNSIONS
  6
CONTINUOUS
 62
     7
 10
3.75
 20
-102.5
 30
0.0
 40
10.0
 50
180.0
 51
270.0
  0
TEXT
  5
3A8
  8
DATA
 62
     7
 10
250.0
 20
-209.5437
 30
0.0
 40
7.3297851562499989
  1
C519ML
 41
0.7
 11
250.0
 21
-202.21391484374999
 31
0.0
 73
     3
  0
TEXT
  5
3A9
  8
DATA
 62
     7
 10
250.0
 20
-187.7937
 30
0.0
 40
7.3297851562499989
  1
AKG
 41
0.7
 11
250.0
 21
-180.46391484374999
 31
0.0
 73
     3
  0
TEXT
  5
3AA
  8
DATA
 62
     7
 10
242.5
 20
-197.67484232246551
 30
0.0
 40
4.8865311328124994
  1
クリップ式マイクロホン
 41
0.7
 11
242.5
 21
-192.788311189653
 31
0.0
 73
     3
  0
TEXT
  5
3AB
  8
DATA
 62
     7
 10
-139.99999999999989
 20
-230.22237000000001
 30
0.0
 40
4.8865234374999993
  1
仕様および外観は予告なく変更されることがありますので、ご了承ください。
 41
0.7
 11
-139.99999999999989
 21
-225.3358465625
 31
0.0
 73
     3
  0
LINE
  5
3AC
  8
DATA
  6
CONTINUOUS
 62
     7
 10
-47.995000000292933
 20
21.249999999999979
 30
0.0
 11
-47.495000000292933
 21
21.249999999999979
 31
0.0
  0
LINE
  5
3AD
  8
DATA
  6
CONTINUOUS
 62
     7
 10
-47.995000000292933
 20
10.25
 30
0.0
 11
-47.495000000292933
 21
10.25
 31
0.0
  0
LINE
  5
3AE
  8
DATA
  6
CONTINUOUS
 62
     7
 10
249.24499999966329
 20
31.25
 30
0.0
 11
249.24499999966329
 21
24.25
 31
0.0
  0
LINE
  5
3AF
  8
DATA
  6
CONTINUOUS
 62
     7
 10
238.24499999966329
 20
24.25
 30
0.0
 11
238.24499999966329
 21
31.25
 31
0.0
  0
LINE
  5
3B0
  8
DATA
  6
CONTINUOUS
 62
     7
 10
249.24499999966329
 20
31.25
 30
0.0
 11
238.24499999966329
 21
31.25
 31
0.0
  0
LINE
  5
3B1
  8
DATA
  6
CONTINUOUS
 62
     7
 10
239.01999999966341
 20
21.538153851150931
 30
0.0
 11
239.01999999966341
 21
24.25
 31
0.0
  0
LINE
  5
3B2
  8
DATA
  6
CONTINUOUS
 62
     7
 10
248.46999999966329
 20
24.25
 30
0.0
 11
248.46999999966329
 21
21.54631132724592
 31
0.0
  0
LINE
  5
3B3
  8
DATA
  6
CONTINUOUS
 62
     7
 10
238.24499999966329
 20
24.25
 30
0.0
 11
249.25499999966331
 21
24.25
 31
0.0
  0
LINE
  5
3B4
  8
DATA
  6
CONTINUOUS
 62
     7
 10
240.7949999996633
 20
31.25
 30
0.0
 11
240.7949999996633
 21
136.25
 31
0.0
  0
LINE
  5
3B5
  8
DATA
  6
CONTINUOUS
 62
     7
 10
246.69499999966331
 20
136.25
 30
0.0
 11
246.69499999966331
 21
31.25
 31
0.0
  0
LINE
  5
3B6
  8
DATA
  6
CONTINUOUS
 62
     7
 10
248.24499999966321
 20
136.25
 30
0.0
 11
239.24499999966329
 21
136.25
 31
0.0
  0
LINE
  5
3B7
  8
DATA
  6
CONTINUOUS
 62
     7
 10
248.64499999966341
 20
148.25
 30
0.0
 11
238.8449999996634
 21
148.25
 31
0.0
  0
LINE
  5
3B8
  8
DATA
  6
CONTINUOUS
 62
     7
 10
239.24499999966329
 20
136.25
 30
0.0
 11
238.8449999996634
 21
148.25
 31
0.0
  0
LINE
  5
3B9
  8
DATA
  6
CONTINUOUS
 62
     7
 10
248.24499999966321
 20
136.25
 30
0.0
 11
248.64499999966341
 21
148.25
 31
0.0
  0
LINE
  5
3BA
  8
DATA
  6
CONTINUOUS
 62
     7
 10
248.64499999966341
 20
166.25
 30
0.0
 11
238.8449999996634
 21
166.25
 31
0.0
  0
LINE
  5
3BB
  8
DATA
  6
CONTINUOUS
 62
     7
 10
238.8449999996634
 20
148.25
 30
0.0
 11
238.8449999996634
 21
178.45402420284711
 31
0.0
  0
LINE
  5
3BC
  8
DATA
  6
CONTINUOUS
 62
     7
 10
248.64499999966341
 20
148.25
 30
0.0
 11
248.64499999966341
 21
177.29088705656261
 31
0.0
  0
LINE
  5
3BD
  8
DATA
  6
CONTINUOUS
 62
     7
 10
240.7949999996633
 20
86.0
 30
0.0
 11
246.69499999966331
 21
86.950000000000017
 31
0.0
  0
LINE
  5
3BE
  8
DATA
  6
CONTINUOUS
 62
     7
 10
240.7949999996633
 20
88.0
 30
0.0
 11
246.69499999966331
 21
88.950000000000017
 31
0.0
  0
LINE
  5
3BF
  8
DATA
  6
CONTINUOUS
 62
     7
 10
240.7949999996633
 20
90.0
 30
0.0
 11
246.69499999966331
 21
90.950000000000003
 31
0.0
  0
LINE
  5
3C0
  8
DATA
  6
CONTINUOUS
 62
     7
 10
240.7949999996633
 20
92.0
 30
0.0
 11
246.69499999966331
 21
92.949999999999989
 31
0.0
  0
LINE
  5
3C1
  8
DATA
  6
CONTINUOUS
 62
     7
 10
240.7949999996633
 20
94.0
 30
0.0
 11
246.69499999966331
 21
94.950000000000003
 31
0.0
  0
LINE
  5
3C2
  8
DATA
  6
CONTINUOUS
 62
     7
 10
240.7949999996633
 20
96.0
 30
0.0
 11
246.69499999966331
 21
96.950000000000003
 31
0.0
  0
LINE
  5
3C3
  8
DATA
  6
CONTINUOUS
 62
     7
 10
240.7949999996633
 20
98.0
 30
0.0
 11
246.69499999966331
 21
98.950000000000017
 31
0.0
  0
LINE
  5
3C4
  8
DATA
  6
CONTINUOUS
 62
     7
 10
240.7949999996633
 20
100.0
 30
0.0
 11
246.69499999966331
 21
100.95
 31
0.0
  0
LINE
  5
3C5
  8
DATA
  6
CONTINUOUS
 62
     7
 10
240.7949999996633
 20
102.0
 30
0.0
 11
246.69499999966331
 21
102.95
 31
0.0
  0
LINE
  5
3C6
  8
DATA
  6
CONTINUOUS
 62
     7
 10
240.7949999996633
 20
104.0
 30
0.0
 11
246.69499999966331
 21
104.95
 31
0.0
  0
LINE
  5
3C7
  8
DATA
  6
CONTINUOUS
 62
     7
 10
240.7949999996633
 20
106.0
 30
0.0
 11
246.69499999966331
 21
106.95
 31
0.0
  0
LINE
  5
3C8
  8
DATA
  6
CONTINUOUS
 62
     7
 10
240.7949999996633
 20
108.0
 30
0.0
 11
246.69499999966331
 21
108.95
 31
0.0
  0
LINE
  5
3C9
  8
DATA
  6
CONTINUOUS
 62
     7
 10
240.7949999996633
 20
110.0
 30
0.0
 11
246.69499999966331
 21
110.95
 31
0.0
  0
LINE
  5
3CA
  8
DATA
  6
CONTINUOUS
 62
     7
 10
240.7949999996633
 20
112.0
 30
0.0
 11
246.69499999966331
 21
112.95
 31
0.0
  0
LINE
  5
3CB
  8
DATA
  6
CONTINUOUS
 62
     7
 10
240.7949999996633
 20
114.0
 30
0.0
 11
246.69499999966331
 21
114.95
 31
0.0
  0
LINE
  5
3CC
  8
DATA
  6
CONTINUOUS
 62
     7
 10
240.7949999996633
 20
116.0
 30
0.0
 11
246.69499999966331
 21
116.95
 31
0.0
  0
LINE
  5
3CD
  8
DATA
  6
CONTINUOUS
 62
     7
 10
240.7949999996633
 20
118.0
 30
0.0
 11
246.69499999966331
 21
118.95
 31
0.0
  0
LINE
  5
3CE
  8
DATA
  6
CONTINUOUS
 62
     7
 10
240.7949999996633
 20
120.0
 30
0.0
 11
246.69499999966331
 21
120.95
 31
0.0
  0
LINE
  5
3CF
  8
DATA
  6
CONTINUOUS
 62
     7
 10
240.7949999996633
 20
122.0
 30
0.0
 11
246.69499999966331
 21
122.95
 31
0.0
  0
LINE
  5
3D0
  8
DATA
  6
CONTINUOUS
 62
     7
 10
240.7949999996633
 20
124.0
 30
0.0
 11
246.69499999966331
 21
124.95
 31
0.0
  0
LINE
  5
3D1
  8
DATA
  6
CONTINUOUS
 62
     7
 10
240.7949999996633
 20
126.0
 30
0.0
 11
246.69499999966331
 21
126.95
 31
0.0
  0
LINE
  5
3D2
  8
DATA
  6
CONTINUOUS
 62
     7
 10
240.7949999996633
 20
128.0
 30
0.0
 11
246.69499999966331
 21
128.94999999999999
 31
0.0
  0
LINE
  5
3D3
  8
DATA
  6
CONTINUOUS
 62
     7
 10
240.7949999996633
 20
130.0
 30
0.0
 11
246.69499999966331
 21
130.94999999999999
 31
0.0
  0
LINE
  5
3D4
  8
DATA
  6
CONTINUOUS
 62
     7
 10
240.7949999996633
 20
132.0
 30
0.0
 11
246.69499999966331
 21
132.94999999999999
 31
0.0
  0
LINE
  5
3D5
  8
DATA
  6
CONTINUOUS
 62
     7
 10
240.7949999996633
 20
134.0
 30
0.0
 11
246.69499999966331
 21
134.94999999999999
 31
0.0
  0
LINE
  5
3D6
  8
DATA
  6
CONTINUOUS
 62
     7
 10
236.74499999966329
 20
-4.75
 30
0.0
 11
236.74499999966329
 21
7.25
 31
0.0
  0
LINE
  5
3D7
  8
DATA
  6
CONTINUOUS
 62
     7
 10
250.74499999966329
 20
7.25
 30
0.0
 11
250.74499999966329
 21
-4.75
 31
0.0
  0
LINE
  5
3D8
  8
DATA
  6
CONTINUOUS
 62
     7
 10
249.54499999966319
 20
-5.75
 30
0.0
 11
237.94499999966331
 21
-5.75
 31
0.0
  0
LINE
  5
3D9
  8
DATA
  6
CONTINUOUS
 62
     7
 10
249.54499999966319
 20
-4.75
 30
0.0
 11
249.54499999966319
 21
-5.75
 31
0.0
  0
LINE
  5
3DA
  8
DATA
  6
CONTINUOUS
 62
     7
 10
237.94499999966331
 20
-5.75
 30
0.0
 11
237.94499999966331
 21
-4.75
 31
0.0
  0
LINE
  5
3DB
  8
DATA
  6
CONTINUOUS
 62
     7
 10
236.74499999966329
 20
-4.75
 30
0.0
 11
250.74499999966329
 21
-4.75
 31
0.0
  0
LINE
  5
3DC
  8
DATA
  6
CONTINUOUS
 62
     7
 10
250.74499999966329
 20
7.25
 30
0.0
 11
236.74499999966329
 21
7.25
 31
0.0
  0
LINE
  5
3DD
  8
DATA
  6
CONTINUOUS
 62
     7
 10
237.24499999966329
 20
7.25
 30
0.0
 11
237.24499999966329
 21
12.06752800427058
 31
0.0
  0
LINE
  5
3DE
  8
DATA
  6
CONTINUOUS
 62
     7
 10
250.24499999966321
 20
12.04991892031526
 30
0.0
 11
250.24499999966321
 21
7.25
 31
0.0
  0
CIRCLE
  5
3DF
  8
DATA
  6
CONTINUOUS
 62
     7
 10
243.7499999995448
 20
15.750000000300011
 30
0.0
 40
7.4749999999999091
  0
CIRCLE
  5
3E0
  8
DATA
  6
CONTINUOUS
 62
     7
 10
243.7499999995448
 20
15.750000000300011
 30
0.0
 40
6.6000000000000076
  0
LINE
  5
3E1
  8
DATA
  6
CONTINUOUS
 62
     7
 10
-32.000000000292928
 20
31.25
 30
0.0
 11
-32.000000000292928
 21
24.25
 31
0.0
  0
LINE
  5
3E2
  8
DATA
  6
CONTINUOUS
 62
     7
 10
-43.000000000292921
 20
24.25
 30
0.0
 11
-43.000000000292921
 21
31.25
 31
0.0
  0
LINE
  5
3E3
  8
DATA
  6
CONTINUOUS
 62
     7
 10
-32.000000000292928
 20
31.25
 30
0.0
 11
-43.000000000292921
 21
31.25
 31
0.0
  0
LINE
  5
3E4
  8
DATA
  6
CONTINUOUS
 62
     7
 10
-42.225000000292937
 20
23.22500000030001
 30
0.0
 11
-42.225000000292937
 21
24.25
 31
0.0
  0
LINE
  5
3E5
  8
DATA
  6
CONTINUOUS
 62
     7
 10
-32.775000000292962
 20
24.25
 30
0.0
 11
-32.775000000292962
 21
23.22500000030001
 31
0.0
  0
LINE
  5
3E6
  8
DATA
  6
CONTINUOUS
 62
     7
 10
-43.000000000292921
 20
24.25
 30
0.0
 11
-31.990000000292941
 21
24.25
 31
0.0
  0
LINE
  5
3E7
  8
DATA
  6
CONTINUOUS
 62
     7
 10
-40.450000000292917
 20
31.25
 30
0.0
 11
-40.450000000292917
 21
136.25
 31
0.0
  0
LINE
  5
3E8
  8
DATA
  6
CONTINUOUS
 62
     7
 10
-34.55000000029294
 20
136.25
 30
0.0
 11
-34.55000000029294
 21
31.25
 31
0.0
  0
LINE
  5
3E9
  8
DATA
  6
CONTINUOUS
 62
     7
 10
-33.000000000292928
 20
136.25
 30
0.0
 11
-42.000000000292928
 21
136.25
 31
0.0
  0
LINE
  5
3EA
  8
DATA
  6
CONTINUOUS
 62
     7
 10
-32.600000000292951
 20
148.25
 30
0.0
 11
-42.400000000292962
 21
148.25
 31
0.0
  0
LINE
  5
3EB
  8
DATA
  6
CONTINUOUS
 62
     7
 10
-42.000000000292928
 20
136.25
 30
0.0
 11
-42.400000000292962
 21
148.25
 31
0.0
  0
LINE
  5
3EC
  8
DATA
  6
CONTINUOUS
 62
     7
 10
-33.000000000292928
 20
136.25
 30
0.0
 11
-32.600000000292951
 21
148.25
 31
0.0
  0
LINE
  5
3ED
  8
DATA
  6
CONTINUOUS
 62
     7
 10
-32.600000000292951
 20
166.25
 30
0.0
 11
-42.400000000292962
 21
166.25
 31
0.0
  0
LINE
  5
3EE
  8
DATA
  6
CONTINUOUS
 62
     7
 10
-42.400000000292962
 20
148.25
 30
0.0
 11
-42.400000000292962
 21
178.9262352984951
 31
0.0
  0
LINE
  5
3EF
  8
DATA
  6
CONTINUOUS
 62
     7
 10
-32.600000000292951
 20
148.25
 30
0.0
 11
-32.600000000292951
 21
178.9262352984951
 31
0.0
  0
CIRCLE
  5
3F0
  8
DATA
  6
CONTINUOUS
 62
     7
 10
-37.500000000292928
 20
185.25
 30
0.0
 40
8.0
  0
CIRCLE
  5
3F1
  8
DATA
  6
CONTINUOUS
 62
     7
 10
-37.500000000292928
 20
185.25
 30
0.0
 40
3.9499999999999882
  0
CIRCLE
  5
3F2
  8
DATA
  6
CONTINUOUS
 62
     7
 10
-37.500000000292928
 20
185.25
 30
0.0
 40
5.849999999999965
  0
LINE
  5
3F3
  8
DATA
  6
CONTINUOUS
 62
     7
 10
-39.450000000292917
 20
190.76543289325511
 30
0.0
 11
-39.450000000292917
 21
193.0087047888162
 31
0.0
  0
LINE
  5
3F4
  8
DATA
  6
CONTINUOUS
 62
     7
 10
-35.55000000029294
 20
190.76543289325511
 30
0.0
 11
-35.55000000029294
 21
193.0087047888162
 31
0.0
  0
LINE
  5
3F5
  8
DATA
  6
CONTINUOUS
 62
     7
 10
-33.698495001865943
 20
189.69646598400701
 30
0.0
 11
-31.7557645527137
 21
190.81810193178799
 31
0.0
  0
LINE
  5
3F6
  8
DATA
  6
CONTINUOUS
 62
     7
 10
-31.748495001865219
 20
186.31896690924819
 30
0.0
 11
-29.805764552713431
 21
187.44060285702889
 31
0.0
  0
LINE
  5
3F7
  8
DATA
  6
CONTINUOUS
 62
     7
 10
-41.301504998720723
 20
189.69646598400749
 30
0.0
 11
-43.244235447871581
 21
190.8181019317876
 31
0.0
  0
LINE
  5
3F8
  8
DATA
  6
CONTINUOUS
 62
     7
 10
-43.251504998719902
 20
186.31896690924771
 30
0.0
 11
-45.194235447870952
 21
187.44060285702801
 31
0.0
  0
LINE
  5
3F9
  8
DATA
  6
CONTINUOUS
 62
     7
 10
-43.251504998719902
 20
184.18103309075221
 30
0.0
 11
-45.194235447872202
 21
183.05939714297131
 31
0.0
  0
LINE
  5
3FA
  8
DATA
  6
CONTINUOUS
 62
     7
 10
-41.301504998720723
 20
180.80353401599251
 30
0.0
 11
-43.244235447872562
 21
179.68189806821181
 31
0.0
  0
LINE
  5
3FB
  8
DATA
  6
CONTINUOUS
 62
     7
 10
-39.450000000292917
 20
177.49129521118371
 30
0.0
 11
-39.450000000292917
 21
179.73456710674489
 31
0.0
  0
LINE
  5
3FC
  8
DATA
  6
CONTINUOUS
 62
     7
 10
-35.55000000029294
 20
177.49129521118371
 30
0.0
 11
-35.55000000029294
 21
179.73456710674489
 31
0.0
  0
LINE
  5
3FD
  8
DATA
  6
CONTINUOUS
 62
     7
 10
-31.75576455271484
 20
179.68189806821269
 30
0.0
 11
-33.698495001865879
 21
180.80353401599291
 31
0.0
  0
LINE
  5
3FE
  8
DATA
  6
CONTINUOUS
 62
     7
 10
-29.80576455271428
 20
183.05939714297159
 30
0.0
 11
-31.748495001865219
 21
184.1810330907517
 31
0.0
  0
LINE
  5
3FF
  8
DATA
  6
CONTINUOUS
 62
     7
 10
-40.450000000292917
 20
86.0
 30
0.0
 11
-34.55000000029294
 21
86.950000000000017
 31
0.0
  0
LINE
  5
400
  8
DATA
  6
CONTINUOUS
 62
     7
 10
-40.450000000292917
 20
88.0
 30
0.0
 11
-34.55000000029294
 21
88.950000000000017
 31
0.0
  0
LINE
  5
401
  8
DATA
  6
CONTINUOUS
 62
     7
 10
-40.450000000292917
 20
90.0
 30
0.0
 11
-34.55000000029294
 21
90.950000000000003
 31
0.0
  0
LINE
  5
402
  8
DATA
  6
CONTINUOUS
 62
     7
 10
-40.450000000292917
 20
92.0
 30
0.0
 11
-34.55000000029294
 21
92.949999999999989
 31
0.0
  0
LINE
  5
403
  8
DATA
  6
CONTINUOUS
 62
     7
 10
-40.450000000292917
 20
94.0
 30
0.0
 11
-34.55000000029294
 21
94.950000000000003
 31
0.0
  0
LINE
  5
404
  8
DATA
  6
CONTINUOUS
 62
     7
 10
-40.450000000292917
 20
96.0
 30
0.0
 11
-34.55000000029294
 21
96.950000000000003
 31
0.0
  0
LINE
  5
405
  8
DATA
  6
CONTINUOUS
 62
     7
 10
-40.450000000292917
 20
98.0
 30
0.0
 11
-34.55000000029294
 21
98.950000000000017
 31
0.0
  0
LINE
  5
406
  8
DATA
  6
CONTINUOUS
 62
     7
 10
-40.450000000292917
 20
100.0
 30
0.0
 11
-34.55000000029294
 21
100.95
 31
0.0
  0
LINE
  5
407
  8
DATA
  6
CONTINUOUS
 62
     7
 10
-40.450000000292917
 20
102.0
 30
0.0
 11
-34.55000000029294
 21
102.95
 31
0.0
  0
LINE
  5
408
  8
DATA
  6
CONTINUOUS
 62
     7
 10
-40.450000000292917
 20
104.0
 30
0.0
 11
-34.55000000029294
 21
104.95
 31
0.0
  0
LINE
  5
409
  8
DATA
  6
CONTINUOUS
 62
     7
 10
-40.450000000292917
 20
106.0
 30
0.0
 11
-34.55000000029294
 21
106.95
 31
0.0
  0
LINE
  5
40A
  8
DATA
  6
CONTINUOUS
 62
     7
 10
-40.450000000292917
 20
108.0
 30
0.0
 11
-34.55000000029294
 21
108.95
 31
0.0
  0
LINE
  5
40B
  8
DATA
  6
CONTINUOUS
 62
     7
 10
-40.450000000292917
 20
110.0
 30
0.0
 11
-34.55000000029294
 21
110.95
 31
0.0
  0
LINE
  5
40C
  8
DATA
  6
CONTINUOUS
 62
     7
 10
-40.450000000292917
 20
112.0
 30
0.0
 11
-34.55000000029294
 21
112.95
 31
0.0
  0
LINE
  5
40D
  8
DATA
  6
CONTINUOUS
 62
     7
 10
-40.450000000292917
 20
114.0
 30
0.0
 11
-34.55000000029294
 21
114.95
 31
0.0
  0
LINE
  5
40E
  8
DATA
  6
CONTINUOUS
 62
     7
 10
-40.450000000292917
 20
116.0
 30
0.0
 11
-34.55000000029294
 21
116.95
 31
0.0
  0
LINE
  5
40F
  8
DATA
  6
CONTINUOUS
 62
     7
 10
-40.450000000292917
 20
118.0
 30
0.0
 11
-34.55000000029294
 21
118.95
 31
0.0
  0
LINE
  5
410
  8
DATA
  6
CONTINUOUS
 62
     7
 10
-40.450000000292917
 20
120.0
 30
0.0
 11
-34.55000000029294
 21
120.95
 31
0.0
  0
LINE
  5
411
  8
DATA
  6
CONTINUOUS
 62
     7
 10
-40.450000000292917
 20
122.0
 30
0.0
 11
-34.55000000029294
 21
122.95
 31
0.0
  0
LINE
  5
412
  8
DATA
  6
CONTINUOUS
 62
     7
 10
-40.450000000292917
 20
124.0
 30
0.0
 11
-34.55000000029294
 21
124.95
 31
0.0
  0
LINE
  5
413
  8
DATA
  6
CONTINUOUS
 62
     7
 10
-40.450000000292917
 20
126.0
 30
0.0
 11
-34.55000000029294
 21
126.95
 31
0.0
  0
LINE
  5
414
  8
DATA
  6
CONTINUOUS
 62
     7
 10
-40.450000000292917
 20
128.0
 30
0.0
 11
-34.55000000029294
 21
128.94999999999999
 31
0.0
  0
LINE
  5
415
  8
DATA
  6
CONTINUOUS
 62
     7
 10
-40.450000000292917
 20
130.0
 30
0.0
 11
-34.55000000029294
 21
130.94999999999999
 31
0.0
  0
LINE
  5
416
  8
DATA
  6
CONTINUOUS
 62
     7
 10
-40.450000000292917
 20
132.0
 30
0.0
 11
-34.55000000029294
 21
132.94999999999999
 31
0.0
  0
LINE
  5
417
  8
DATA
  6
CONTINUOUS
 62
     7
 10
-40.450000000292917
 20
134.0
 30
0.0
 11
-34.55000000029294
 21
134.94999999999999
 31
0.0
  0
LINE
  5
418
  8
DATA
  6
CONTINUOUS
 62
     7
 10
-44.500000000292928
 20
-4.75
 30
0.0
 11
-44.500000000292928
 21
7.25
 31
0.0
  0
LINE
  5
419
  8
DATA
  6
CONTINUOUS
 62
     7
 10
-30.500000000292928
 20
7.25
 30
0.0
 11
-30.500000000292928
 21
-4.75
 31
0.0
  0
LINE
  5
41A
  8
DATA
  6
CONTINUOUS
 62
     7
 10
-30.500000000292928
 20
7.25
 30
0.0
 11
-44.500000000292928
 21
7.25
 31
0.0
  0
LINE
  5
41B
  8
DATA
  6
CONTINUOUS
 62
     7
 10
-44.000000000292928
 20
7.25
 30
0.0
 11
-44.000000000292928
 21
8.2750000002999968
 31
0.0
  0
LINE
  5
41C
  8
DATA
  6
CONTINUOUS
 62
     7
 10
-31.000000000292928
 20
8.2750000002999968
 30
0.0
 11
-31.000000000292928
 21
7.25
 31
0.0
  0
LINE
  5
41D
  8
DATA
  6
CONTINUOUS
 62
     7
 10
-28.495000000292929
 20
23.22500000030001
 30
0.0
 11
-32.775000000292962
 21
23.22500000030001
 31
0.0
  0
LINE
  5
41E
  8
DATA
  6
CONTINUOUS
 62
     7
 10
-42.225000000292937
 20
23.22500000030001
 30
0.0
 11
-47.495000000292933
 21
23.22500000030001
 31
0.0
  0
LINE
  5
41F
  8
DATA
  6
CONTINUOUS
 62
     7
 10
-47.995000000292933
 20
23.22500000030001
 30
0.0
 11
-50.295000000292937
 21
23.22500000030001
 31
0.0
  0
LINE
  5
420
  8
DATA
  6
CONTINUOUS
 62
     7
 10
-28.495000000292929
 20
8.2750000002999968
 30
0.0
 11
-31.000000000293038
 21
8.2750000002999968
 31
0.0
  0
LINE
  5
421
  8
DATA
  6
CONTINUOUS
 62
     7
 10
-44.000000000292857
 20
8.2750000002999968
 30
0.0
 11
-47.495000000292933
 21
8.2750000002999968
 31
0.0
  0
LINE
  5
422
  8
DATA
  6
CONTINUOUS
 62
     7
 10
-47.995000000292933
 20
8.2750000002999968
 30
0.0
 11
-50.295000000292937
 21
8.2750000002999968
 31
0.0
  0
LINE
  5
423
  8
DATA
  6
CONTINUOUS
 62
     7
 10
-28.495000000292929
 20
8.2750000002999968
 30
0.0
 11
-28.495000000292929
 21
23.22500000030001
 31
0.0
  0
LINE
  5
424
  8
DATA
  6
CONTINUOUS
 62
     7
 10
-47.495000000292933
 20
8.2750000002999968
 30
0.0
 11
-47.495000000292933
 21
23.22500000030001
 31
0.0
  0
LINE
  5
425
  8
DATA
  6
CONTINUOUS
 62
     7
 10
-47.995000000292933
 20
8.2750000002999968
 30
0.0
 11
-47.995000000292933
 21
23.22500000030001
 31
0.0
  0
LINE
  5
426
  8
DATA
  6
CONTINUOUS
 62
     7
 10
-50.295000000292937
 20
8.2750000002999968
 30
0.0
 11
-50.295000000292937
 21
23.22500000030001
 31
0.0
  0
ARC
  5
427
  8
DATA
  6
CONTINUOUS
 62
     7
 10
-37.500000000292928
 20
35.544985714585607
 30
0.0
 40
13.19498666161514
 50
249.01702376229349
 51
290.98297623770611
  0
ARC
  5
428
  8
DATA
  6
CONTINUOUS
 62
     7
 10
-37.500000000292928
 20
0.3514838712676465
 30
0.0
 40
10.24851734872102
 50
50.636502589069778
 51
129.36349741093019
  0
LINE
  5
429
  8
DATA
  6
CONTINUOUS
 62
     7
 10
250.64499999966341
 20
175.00000000029999
 30
0.0
 11
250.64499999966341
 21
193.25
 31
0.0
  0
LINE
  5
42A
  8
DATA
  6
CONTINUOUS
 62
     7
 10
232.49499999966329
 20
181.74300010367509
 30
0.0
 11
232.49499999966329
 21
188.75699989632491
 31
0.0
  0
ARC
  5
42B
  8
DATA
  6
CONTINUOUS
 62
     7
 10
243.76695933091131
 20
172.6410494973579
 30
0.0
 40
20.019411788534981
 50
102.96643352930241
 51
123.01534812579141
  0
ARC
  5
42C
  8
DATA
  6
CONTINUOUS
 62
     7
 10
250.9139697175255
 20
131.1576039007015
 30
0.0
 40
62.092978653478283
 50
90.24819034582201
 51
100.8036690096267
  0
ARC
  5
42D
  8
DATA
  6
CONTINUOUS
 62
     7
 10
243.76695933091131
 20
197.8589505026421
 30
0.0
 40
20.019411788534999
 50
236.98465187420859
 51
257.03356647069751
  0
ARC
  5
42E
  8
DATA
  6
CONTINUOUS
 62
     7
 10
250.9139697175255
 20
239.3423960992985
 30
0.0
 40
62.092978653478262
 50
259.19633099037333
 51
269.75180965417798
  0
ARC
  5
42F
  8
DATA
  6
CONTINUOUS
 62
     7
 10
233.2949999996633
 20
188.75699989632491
 30
0.0
 40
0.8000000000000183
 50
123.01534812579369
 51
180.0
  0
ARC
  5
430
  8
DATA
  6
CONTINUOUS
 62
     7
 10
233.2949999996633
 20
181.74300010367509
 30
0.0
 40
0.8000000000000682
 50
180.0
 51
236.98465187420621
  0
LINE
  5
431
  8
DATA
  6
CONTINUOUS
 62
     7
 10
250.64499999966341
 20
175.00000000029999
 30
0.0
 11
248.64499999966341
 21
175.00000000029999
 31
0.0
  0
LINE
  5
432
  8
DATA
  6
CONTINUOUS
 62
     7
 10
245.64499999966341
 20
187.70000000030001
 30
0.0
 11
245.64499999966341
 21
190.80000000029989
 31
0.0
  0
LINE
  5
433
  8
DATA
  6
CONTINUOUS
 62
     7
 10
234.69499999966331
 20
187.35000000030001
 30
0.0
 11
234.69499999966331
 21
188.75699989632491
 31
0.0
  0
ARC
  5
434
  8
DATA
  6
CONTINUOUS
 62
     7
 10
246.50517760219131
 20
155.82343816798959
 30
0.0
 40
34.987137395296081
 50
91.408789523051695
 51
109.7281455848637
  0
ARC
  5
435
  8
DATA
  6
CONTINUOUS
 62
     7
 10
236.80999999971331
 20
292.64499999873738
 30
0.0
 40
105.3162392495627
 50
268.849287427999
 51
274.81220986805192
  0
LINE
  5
436
  8
DATA
  6
CONTINUOUS
 62
     7
 10
245.64499999966341
 20
182.79999999969999
 30
0.0
 11
245.64499999966341
 21
179.6999999997
 31
0.0
  0
LINE
  5
437
  8
DATA
  6
CONTINUOUS
 62
     7
 10
234.69499999966331
 20
183.14999999969999
 30
0.0
 11
234.69499999966331
 21
181.74300010367509
 31
0.0
  0
ARC
  5
438
  8
DATA
  6
CONTINUOUS
 62
     7
 10
246.50517760219131
 20
214.67656183201041
 30
0.0
 40
34.987137395296109
 50
250.27185441513629
 51
268.59121047694828
  0
ARC
  5
439
  8
DATA
  6
CONTINUOUS
 62
     7
 10
236.80999999971331
 20
77.855000001262553
 30
0.0
 40
105.3162392495628
 50
85.187790131948091
 51
91.150712572000984
  0
LINE
  5
43A
  8
DATA
  6
CONTINUOUS
 62
     7
 10
-29.495000000443
 20
299.14904752344188
 30
0.0
 11
-45.495000000442928
 21
299.14904752344188
 31
0.0
  0
LINE
  5
43B
  8
DATA
  6
CONTINUOUS
 62
     7
 10
-33.988000104118058
 20
280.99904752344202
 30
0.0
 11
-41.001999896767892
 21
280.99904752344202
 31
0.0
  0
ARC
  5
43C
  8
DATA
  6
CONTINUOUS
 62
     7
 10
-24.88604949780089
 20
292.27100685468992
 30
0.0
 40
20.01941178853496
 50
192.96643352930201
 51
213.01534812579101
  0
ARC
  5
43D
  8
DATA
  6
CONTINUOUS
 62
     7
 10
16.597396098855722
 20
299.4180172413042
 30
0.0
 40
62.092978653478418
 50
180.24819034582211
 51
190.8036690096267
  0
ARC
  5
43E
  8
DATA
  6
CONTINUOUS
 62
     7
 10
-50.103950503085031
 20
292.27100685468992
 30
0.0
 40
20.01941178853491
 50
326.98465187420879
 51
347.03356647069802
  0
ARC
  5
43F
  8
DATA
  6
CONTINUOUS
 62
     7
 10
-91.587396099741483
 20
299.4180172413042
 30
0.0
 40
62.092978653478262
 50
349.19633099037321
 51
359.75180965417792
  0
ARC
  5
440
  8
DATA
  6
CONTINUOUS
 62
     7
 10
-41.001999896767892
 20
281.79904752344191
 30
0.0
 40
0.7999999999999754
 50
213.01534812579089
 51
270.0
  0
ARC
  5
441
  8
DATA
  6
CONTINUOUS
 62
     7
 10
-33.988000104118058
 20
281.79904752344191
 30
0.0
 40
0.7999999999999546
 50
270.0
 51
326.98465187420919
  0
LINE
  5
442
  8
DATA
  6
CONTINUOUS
 62
     7
 10
-39.945000000742958
 20
294.14904752344188
 30
0.0
 11
-43.045000000742967
 21
294.14904752344188
 31
0.0
  0
LINE
  5
443
  8
DATA
  6
CONTINUOUS
 62
     7
 10
-39.595000000742992
 20
283.199047523442
 30
0.0
 11
-41.001999896767892
 21
283.199047523442
 31
0.0
  0
ARC
  5
444
  8
DATA
  6
CONTINUOUS
 62
     7
 10
-8.0684381684325217
 20
295.00922512596992
 30
0.0
 40
34.987137395296109
 50
181.40878952305169
 51
199.7281455848636
  0
ARC
  5
445
  8
DATA
  6
CONTINUOUS
 62
     7
 10
-144.88999999918039
 20
285.31404752349192
 30
0.0
 40
105.3162392495628
 50
358.84928742799889
 51
4.8122098680518652
  0
LINE
  5
446
  8
DATA
  6
CONTINUOUS
 62
     7
 10
-35.045000000142942
 20
294.14904752344188
 30
0.0
 11
-31.945000000142969
 21
294.14904752344188
 31
0.0
  0
LINE
  5
447
  8
DATA
  6
CONTINUOUS
 62
     7
 10
-35.395000000142957
 20
283.199047523442
 30
0.0
 11
-33.988000104118058
 21
283.199047523442
 31
0.0
  0
ARC
  5
448
  8
DATA
  6
CONTINUOUS
 62
     7
 10
-66.921561832453349
 20
295.00922512596992
 30
0.0
 40
34.987137395296067
 50
340.27185441513632
 51
358.59121047694822
  0
ARC
  5
449
  8
DATA
  6
CONTINUOUS
 62
     7
 10
69.89999999829476
 20
285.31404752349192
 30
0.0
 40
105.316239249563
 50
175.18779013194811
 51
181.15071257200091
  0
LINE
  5
44A
  8
DATA
  6
CONTINUOUS
 62
     7
 10
-47.995000000292933
 20
298.77500000022042
 30
0.0
 11
-47.495000000292933
 21
298.77500000022042
 31
0.0
  0
LINE
  5
44B
  8
DATA
  6
CONTINUOUS
 62
     7
 10
-28.495000000292929
 20
300.75000000052052
 30
0.0
 11
-47.495000000292933
 21
300.75000000052052
 31
0.0
  0
LINE
  5
44C
  8
DATA
  6
CONTINUOUS
 62
     7
 10
-47.995000000292933
 20
300.75000000052052
 30
0.0
 11
-50.295000000292937
 21
300.75000000052052
 31
0.0
  0
LINE
  5
44D
  8
DATA
  6
CONTINUOUS
 62
     7
 10
-28.495000000292929
 20
285.80000000052053
 30
0.0
 11
-31.159217233592319
 21
285.80000000052053
 31
0.0
  0
LINE
  5
44E
  8
DATA
  6
CONTINUOUS
 62
     7
 10
-43.83078276729357
 20
285.80000000052053
 30
0.0
 11
-47.495000000292933
 21
285.80000000052053
 31
0.0
  0
LINE
  5
44F
  8
DATA
  6
CONTINUOUS
 62
     7
 10
-47.995000000292933
 20
285.80000000052053
 30
0.0
 11
-50.295000000292937
 21
285.80000000052053
 31
0.0
  0
LINE
  5
450
  8
DATA
  6
CONTINUOUS
 62
     7
 10
-28.495000000292929
 20
285.80000000052053
 30
0.0
 11
-28.495000000292929
 21
300.75000000052052
 31
0.0
  0
LINE
  5
451
  8
DATA
  6
CONTINUOUS
 62
     7
 10
-47.495000000292933
 20
285.80000000052053
 30
0.0
 11
-47.495000000292933
 21
300.75000000052052
 31
0.0
  0
LINE
  5
452
  8
DATA
  6
CONTINUOUS
 62
     7
 10
-47.995000000292933
 20
285.80000000052053
 30
0.0
 11
-47.995000000292933
 21
300.75000000052052
 31
0.0
  0
LINE
  5
453
  8
DATA
  6
CONTINUOUS
 62
     7
 10
-50.295000000292937
 20
285.80000000052053
 30
0.0
 11
-50.295000000292937
 21
300.75000000052052
 31
0.0
  0
LINE
  5
454
  8
DATA
  6
CONTINUOUS
 62
     7
 10
-74.495000000292904
 20
298.77500000022042
 30
0.0
 11
-50.295000000292937
 21
298.77500000022042
 31
0.0
  0
LINE
  5
455
  8
DATA
  6
CONTINUOUS
 62
     7
 10
-74.495000000292904
 20
261.94999999999908
 30
0.0
 11
-74.495000000292904
 21
285.3750000006205
 31
0.0
  0
LINE
  5
456
  8
DATA
  6
CONTINUOUS
 62
     7
 10
-74.495000000292904
 20
287.77500000062048
 30
0.0
 11
-74.495000000292904
 21
298.77500000022042
 31
0.0
  0
LINE
  5
457
  8
DATA
  6
CONTINUOUS
 62
     7
 10
-51.495000000292933
 20
261.9499999999997
 30
0.0
 11
-51.495000000292933
 21
285.37500000062062
 31
0.0
  0
LINE
  5
458
  8
DATA
  6
CONTINUOUS
 62
     7
 10
-51.495000000292933
 20
287.77500000062048
 30
0.0
 11
-51.495000000292933
 21
298.77500000022042
 31
0.0
  0
LINE
  5
459
  8
DATA
  6
CONTINUOUS
 62
     7
 10
-42.300942039483559
 20
-32.349749999771888
 30
0.0
 11
-43.050942039483559
 21
-19.34982999977149
 31
0.0
  0
LINE
  5
45A
  8
DATA
  6
CONTINUOUS
 62
     7
 10
-32.81465759646737
 20
-32.349749999771888
 30
0.0
 11
-32.06465759646737
 21
-19.34982999977149
 31
0.0
  0
LINE
  5
45B
  8
DATA
  6
CONTINUOUS
 62
     7
 10
-42.300942039483559
 20
-32.349749999771888
 30
0.0
 11
-32.81465759646737
 21
-32.349749999771888
 31
0.0
  0
LINE
  5
45C
  8
DATA
  6
CONTINUOUS
 62
     7
 10
-43.050942039483559
 20
-19.34982999977149
 30
0.0
 11
-43.050942039483559
 21
-12.849779999771499
 31
0.0
  0
LINE
  5
45D
  8
DATA
  6
CONTINUOUS
 62
     7
 10
-32.06465759646737
 20
-19.34982999977149
 30
0.0
 11
-32.06465759646737
 21
-12.849779999771499
 31
0.0
  0
LINE
  5
45E
  8
DATA
  6
CONTINUOUS
 62
     7
 10
-43.050942039483559
 20
-12.849779999771499
 30
0.0
 11
-32.06465759646737
 21
-12.849779999771499
 31
0.0
  0
LINE
  5
45F
  8
DATA
  6
CONTINUOUS
 62
     7
 10
-43.050942039483559
 20
-12.849779999771499
 30
0.0
 11
-43.050942039483559
 21
-5.3499999997712839
 31
0.0
  0
LINE
  5
460
  8
DATA
  6
CONTINUOUS
 62
     7
 10
-32.06465759646737
 20
-5.3499999997712839
 30
0.0
 11
-32.06465759646737
 21
-12.849779999771499
 31
0.0
  0
LINE
  5
461
  8
DATA
  6
CONTINUOUS
 62
     7
 10
-43.050942039483559
 20
-12.74985999977139
 30
0.0
 11
-32.06465759646737
 21
-12.74985999977139
 31
0.0
  0
LINE
  5
462
  8
DATA
  6
CONTINUOUS
 62
     7
 10
-38.250942039483597
 20
-19.34982999977149
 30
0.0
 11
-37.800962039483508
 21
-25.349709999771559
 31
0.0
  0
LINE
  5
463
  8
DATA
  6
CONTINUOUS
 62
     7
 10
-37.351042039483488
 20
-19.34982999977149
 30
0.0
 11
-37.800962039483508
 21
-25.349709999771559
 31
0.0
  0
LINE
  5
464
  8
DATA
  6
CONTINUOUS
 62
     7
 10
-37.351042039483488
 20
-19.34982999977149
 30
0.0
 11
-38.250942039483597
 21
-19.34982999977149
 31
0.0
  0
LINE
  5
465
  8
DATA
  6
CONTINUOUS
 62
     7
 10
-42.25094203948349
 20
-19.34982999977149
 30
0.0
 11
-41.800942039483559
 21
-25.349709999771559
 31
0.0
  0
LINE
  5
466
  8
DATA
  6
CONTINUOUS
 62
     7
 10
-41.351042039483481
 20
-19.34982999977149
 30
0.0
 11
-41.800942039483559
 21
-25.349709999771559
 31
0.0
  0
LINE
  5
467
  8
DATA
  6
CONTINUOUS
 62
     7
 10
-42.25094203948349
 20
-19.34982999977149
 30
0.0
 11
-41.351042039483481
 21
-19.34982999977149
 31
0.0
  0
LINE
  5
468
  8
DATA
  6
CONTINUOUS
 62
     7
 10
-40.25094203948349
 20
-19.34982999977149
 30
0.0
 11
-39.800942039483452
 21
-25.349709999771559
 31
0.0
  0
LINE
  5
469
  8
DATA
  6
CONTINUOUS
 62
     7
 10
-39.351042039483488
 20
-19.34982999977149
 30
0.0
 11
-39.800942039483452
 21
-25.349709999771559
 31
0.0
  0
LINE
  5
46A
  8
DATA
  6
CONTINUOUS
 62
     7
 10
-40.25094203948349
 20
-19.34982999977149
 30
0.0
 11
-39.351042039483488
 21
-19.34982999977149
 31
0.0
  0
LINE
  5
46B
  8
DATA
  6
CONTINUOUS
 62
     7
 10
-36.250942039483597
 20
-19.34982999977149
 30
0.0
 11
-35.801052039483622
 21
-25.349709999771559
 31
0.0
  0
LINE
  5
46C
  8
DATA
  6
CONTINUOUS
 62
     7
 10
-35.351042039483602
 20
-19.34982999977149
 30
0.0
 11
-35.801052039483622
 21
-25.349709999771559
 31
0.0
  0
LINE
  5
46D
  8
DATA
  6
CONTINUOUS
 62
     7
 10
-36.250942039483597
 20
-19.34982999977149
 30
0.0
 11
-35.351042039483602
 21
-19.34982999977149
 31
0.0
  0
LINE
  5
46E
  8
DATA
  6
CONTINUOUS
 62
     7
 10
-34.250942039483597
 20
-19.34982999977149
 30
0.0
 11
-33.801052039483629
 21
-25.349709999771559
 31
0.0
  0
LINE
  5
46F
  8
DATA
  6
CONTINUOUS
 62
     7
 10
-33.351062039483551
 20
-19.34982999977149
 30
0.0
 11
-33.801052039483629
 21
-25.349709999771559
 31
0.0
  0
LINE
  5
470
  8
DATA
  6
CONTINUOUS
 62
     7
 10
-34.250942039483597
 20
-19.34982999977149
 30
0.0
 11
-33.351062039483551
 21
-19.34982999977149
 31
0.0
  0
LINE
  5
471
  8
DATA
  6
CONTINUOUS
 62
     7
 10
-39.800997039483534
 20
-49.349749999772122
 30
0.0
 11
-35.800997039483534
 21
-49.349749999772122
 31
0.0
  0
LINE
  5
472
  8
DATA
  6
CONTINUOUS
 62
     7
 10
-40.300997039483534
 20
-32.349749999771888
 30
0.0
 11
-39.800997039483534
 21
-49.349749999772122
 31
0.0
  0
LINE
  5
473
  8
DATA
  6
CONTINUOUS
 62
     7
 10
-35.300997039483541
 20
-32.349749999771888
 30
0.0
 11
-35.800997039483534
 21
-49.349749999772122
 31
0.0
  0
LINE
  5
474
  8
DATA
  6
CONTINUOUS
 62
     7
 10
-36.800997039483541
 20
-49.349749999772122
 30
0.0
 11
-36.800997039483541
 21
-83.046353641875228
 31
0.0
  0
LINE
  5
475
  8
DATA
  6
CONTINUOUS
 62
     7
 10
-38.800997039483534
 20
-49.349749999772122
 30
0.0
 11
-38.800997039483534
 21
-80.493201753693086
 31
0.0
  0
LINE
  5
476
  8
DATA
  6
CONTINUOUS
 62
     7
 10
-38.800997039483534
 20
-82.493201753693114
 30
0.0
 11
-38.800997039483534
 21
-85.046353641875243
 31
0.0
  0
ARC
  5
477
  8
DATA
  6
CONTINUOUS
 62
     7
 10
13.19712772358289
 20
-82.613317642399849
 30
0.0
 40
50.0
 50
179.5037710933961
 51
180.4962289066043
  0
ARC
  5
478
  8
DATA
  6
CONTINUOUS
 62
     7
 10
13.19712772358289
 20
-82.613317642399849
 30
0.0
 40
50.0
 50
182.820848868865
 51
270.0
  0
ARC
  5
479
  8
DATA
  6
CONTINUOUS
 62
     7
 10
11.1971277235829
 20
-84.613317642399835
 30
0.0
 40
50.0
 50
180.49622890660419
 51
269.99999999999989
  0
ARC
  5
47A
  8
DATA
  6
CONTINUOUS
 62
     7
 10
-34.084650713969772
 20
-81.797389844977559
 30
0.0
 40
4.2188935733035331
 50
207.26982744309899
 51
332.7301725569011
  0
ARC
  5
47B
  8
DATA
  6
CONTINUOUS
 62
     7
 10
-41.584650713969772
 20
-85.66342811838453
 30
0.0
 40
4.2188935733035331
 50
27.269827443099
 51
152.73017255690101
  0
ARC
  5
47C
  8
DATA
  6
CONTINUOUS
 62
     7
 10
-34.084650713969772
 20
-79.797389844977559
 30
0.0
 40
4.2188935733035331
 50
207.26982744309899
 51
332.7301725569011
  0
ARC
  5
47D
  8
DATA
  6
CONTINUOUS
 62
     7
 10
-41.584650713969772
 20
-83.66342811838453
 30
0.0
 40
4.2188935733035331
 50
27.269827443099
 51
152.73017255690101
  0
LINE
  5
47E
  8
DATA
  6
CONTINUOUS
 62
     7
 10
13.19712772358289
 20
-132.61331764239981
 30
0.0
 11
60.993842197188037
 21
-132.61331764239981
 31
0.0
  0
LINE
  5
47F
  8
DATA
  6
CONTINUOUS
 62
     7
 10
11.1971277235829
 20
-134.61331764239981
 30
0.0
 11
60.993842197188037
 21
-134.61331764239981
 31
0.0
  0
LINE
  5
480
  8
DATA
  6
CONTINUOUS
 62
     7
 10
77.993842197188343
 20
-129.21014794065951
 30
0.0
 11
90.993762197188815
 21
-128.46014794065951
 31
0.0
  0
LINE
  5
481
  8
DATA
  6
CONTINUOUS
 62
     7
 10
77.993842197188343
 20
-138.6964323836757
 30
0.0
 11
90.993762197188815
 21
-139.4464323836757
 31
0.0
  0
LINE
  5
482
  8
DATA
  6
CONTINUOUS
 62
     7
 10
77.993842197188343
 20
-129.21014794065951
 30
0.0
 11
77.993842197188343
 21
-138.6964323836757
 31
0.0
  0
LINE
  5
483
  8
DATA
  6
CONTINUOUS
 62
     7
 10
90.993762197188815
 20
-128.46014794065951
 30
0.0
 11
97.493812197188845
 21
-128.46014794065951
 31
0.0
  0
LINE
  5
484
  8
DATA
  6
CONTINUOUS
 62
     7
 10
90.993762197188815
 20
-139.4464323836757
 30
0.0
 11
97.493812197188845
 21
-139.4464323836757
 31
0.0
  0
LINE
  5
485
  8
DATA
  6
CONTINUOUS
 62
     7
 10
97.493812197188845
 20
-128.46014794065951
 30
0.0
 11
97.493812197188845
 21
-139.4464323836757
 31
0.0
  0
LINE
  5
486
  8
DATA
  6
CONTINUOUS
 62
     7
 10
97.493812197188845
 20
-128.46014794065951
 30
0.0
 11
104.993592197189
 21
-128.46014794065951
 31
0.0
  0
LINE
  5
487
  8
DATA
  6
CONTINUOUS
 62
     7
 10
104.993592197189
 20
-139.4464323836757
 30
0.0
 11
97.493812197188845
 21
-139.4464323836757
 31
0.0
  0
LINE
  5
488
  8
DATA
  6
CONTINUOUS
 62
     7
 10
104.993592197189
 20
-128.46014794065951
 30
0.0
 11
104.993592197189
 21
-139.4464323836757
 31
0.0
  0
LINE
  5
489
  8
DATA
  6
CONTINUOUS
 62
     7
 10
104.993592197189
 20
-137.7100379406595
 30
0.0
 11
113.493572197189
 21
-137.7100379406595
 31
0.0
  0
LINE
  5
48A
  8
DATA
  6
CONTINUOUS
 62
     7
 10
113.493572197189
 20
-137.7100379406595
 30
0.0
 11
113.493572197189
 21
-129.71014794065951
 31
0.0
  0
LINE
  5
48B
  8
DATA
  6
CONTINUOUS
 62
     7
 10
97.593732197188956
 20
-128.46014794065951
 30
0.0
 11
97.593732197188956
 21
-139.4464323836757
 31
0.0
  0
LINE
  5
48C
  8
DATA
  6
CONTINUOUS
 62
     7
 10
112.993572197189
 20
-128.67002794065971
 30
0.0
 11
112.993572197189
 21
-129.71014794065951
 31
0.0
  0
LINE
  5
48D
  8
DATA
  6
CONTINUOUS
 62
     7
 10
112.7936921971891
 20
-129.71014794065951
 30
0.0
 11
112.7936921971891
 21
-128.90995794065961
 31
0.0
  0
POLYLINE
  5
48E
  8
DATA
  6
CONTINUOUS
 62
     7
 66
     1
 10
0.0
 20
0.0
 30
0.0
 70
   129
  0
VERTEX
  5
80C
  8
DATA
  6
CONTINUOUS
 62
     7
 10
108.4686021971889
 20
-129.4990579406597
 30
0.0
  0
VERTEX
  5
80D
  8
DATA
  6
CONTINUOUS
 62
     7
 10
108.4699649439828
 20
-129.49947547200981
 30
0.0
  0
VERTEX
  5
80E
  8
DATA
  6
CONTINUOUS
 62
     7
 10
108.469964943983
 20
-129.49947547200989
 30
0.0
 42
0.0515215183433478
  0
VERTEX
  5
80F
  8
DATA
  6
CONTINUOUS
 62
     7
 10
108.49370219718899
 20
-129.50414794065961
 30
0.0
  0
SEQEND
  5
810
  8
DATA
  6
CONTINUOUS
 62
     7
  0
LINE
  5
494
  8
DATA
  6
CONTINUOUS
 62
     7
 10
112.7936921971891
 20
-128.90995794065961
 30
0.0
 11
108.517682197189
 21
-129.7061179406596
 31
0.0
  0
POLYLINE
  5
495
  8
DATA
  6
CONTINUOUS
 62
     7
 66
     1
 10
0.0
 20
0.0
 30
0.0
 70
   129
  0
VERTEX
  5
811
  8
DATA
  6
CONTINUOUS
 62
     7
 10
108.4686021971889
 20
-129.4990579406597
 30
0.0
  0
VERTEX
  5
812
  8
DATA
  6
CONTINUOUS
 62
     7
 10
108.4699649439828
 20
-129.49947547200981
 30
0.0
  0
VERTEX
  5
813
  8
DATA
  6
CONTINUOUS
 62
     7
 10
108.469964943983
 20
-129.49947547200989
 30
0.0
 42
0.0515215183433478
  0
VERTEX
  5
814
  8
DATA
  6
CONTINUOUS
 62
     7
 10
108.49370219718899
 20
-129.50414794065961
 30
0.0
  0
SEQEND
  5
815
  8
DATA
  6
CONTINUOUS
 62
     7
  0
LINE
  5
49B
  8
DATA
  6
CONTINUOUS
 62
     7
 10
105.7416921971889
 20
-129.13304794065959
 30
0.0
 11
105.5945921971889
 21
-128.99304794065961
 31
0.0
  0
LINE
  5
49C
  8
DATA
  6
CONTINUOUS
 62
     7
 10
105.99230219718891
 20
-128.70024794065961
 30
0.0
 11
105.5945921971889
 21
-128.99304794065961
 31
0.0
  0
LINE
  5
49D
  8
DATA
  6
CONTINUOUS
 62
     7
 10
106.029882197189
 20
-128.9217579406596
 30
0.0
 11
105.7416921971889
 21
-129.13304794065959
 31
0.0
  0
LINE
  5
49E
  8
DATA
  6
CONTINUOUS
 62
     7
 10
106.029882197189
 20
-128.9217579406596
 30
0.0
 11
108.469682197189
 21
-129.70311794065961
 31
0.0
  0
LINE
  5
49F
  8
DATA
  6
CONTINUOUS
 62
     7
 10
108.4686021971889
 20
-129.4990579406597
 30
0.0
 11
105.99230219718891
 21
-128.70024794065961
 31
0.0
  0
LINE
  5
4A0
  8
DATA
  6
CONTINUOUS
 62
     7
 10
108.517682197189
 20
-129.50204794065959
 30
0.0
 11
112.993572197189
 21
-128.67002794065971
 31
0.0
  0
POLYLINE
  5
4A1
  8
DATA
  6
CONTINUOUS
 62
     7
 66
     1
 10
0.0
 20
0.0
 30
0.0
 70
   129
  0
VERTEX
  5
816
  8
DATA
  6
CONTINUOUS
 62
     7
 10
108.4686021971889
 20
-129.4990579406597
 30
0.0
  0
VERTEX
  5
817
  8
DATA
  6
CONTINUOUS
 62
     7
 10
108.4699649439828
 20
-129.49947547200981
 30
0.0
  0
VERTEX
  5
818
  8
DATA
  6
CONTINUOUS
 62
     7
 10
108.469964943983
 20
-129.49947547200989
 30
0.0
 42
0.0515215183433478
  0
VERTEX
  5
819
  8
DATA
  6
CONTINUOUS
 62
     7
 10
108.49370219718899
 20
-129.50414794065961
 30
0.0
  0
SEQEND
  5
81A
  8
DATA
  6
CONTINUOUS
 62
     7
  0
LINE
  5
4A7
  8
DATA
  6
CONTINUOUS
 62
     7
 10
105.49361219718899
 20
-131.21014794065971
 30
0.0
 11
107.993662197189
 21
-131.21014794065971
 31
0.0
  0
LINE
  5
4A8
  8
DATA
  6
CONTINUOUS
 62
     7
 10
105.49361219718899
 20
-131.21014794065971
 30
0.0
 11
105.49361219718899
 21
-129.71014794065951
 31
0.0
  0
LINE
  5
4A9
  8
DATA
  6
CONTINUOUS
 62
     7
 10
107.993662197189
 20
-131.21014794065971
 30
0.0
 11
107.993662197189
 21
-129.71014794065951
 31
0.0
  0
LINE
  5
4AA
  8
DATA
  6
CONTINUOUS
 62
     7
 10
105.49361219718899
 20
-129.71014794065951
 30
0.0
 11
104.993592197189
 21
-129.71014794065951
 31
0.0
  0
LINE
  5
4AB
  8
DATA
  6
CONTINUOUS
 62
     7
 10
107.993662197189
 20
-129.71014794065951
 30
0.0
 11
113.493572197189
 21
-129.71014794065951
 31
0.0
  0
LINE
  5
4AC
  8
DATA
  6
CONTINUOUS
 62
     7
 10
107.9785921971889
 20
-129.71913794065961
 30
0.0
 11
106.325702197189
 21
-129.71913794065961
 31
0.0
  0
LINE
  5
4AD
  8
DATA
  6
CONTINUOUS
 62
     7
 10
106.325702197189
 20
-129.71913794065961
 30
0.0
 11
106.325702197189
 21
-129.3671379406596
 31
0.0
  0
LINE
  5
4AE
  8
DATA
  6
CONTINUOUS
 62
     7
 10
106.325702197189
 20
-129.3671379406596
 30
0.0
 11
107.993662197189
 21
-129.71014794065951
 31
0.0
  0
LINE
  5
4AF
  8
DATA
  6
CONTINUOUS
 62
     7
 10
90.993762197188815
 20
-133.26014794065949
 30
0.0
 11
84.993882197188796
 21
-133.71012794065959
 31
0.0
  0
LINE
  5
4B0
  8
DATA
  6
CONTINUOUS
 62
     7
 10
90.993762197188815
 20
-134.16004794065961
 30
0.0
 11
84.993882197188796
 21
-133.71012794065959
 31
0.0
  0
LINE
  5
4B1
  8
DATA
  6
CONTINUOUS
 62
     7
 10
90.993762197188815
 20
-134.16004794065961
 30
0.0
 11
90.993762197188815
 21
-133.26014794065949
 31
0.0
  0
LINE
  5
4B2
  8
DATA
  6
CONTINUOUS
 62
     7
 10
90.993762197188815
 20
-129.26014794065961
 30
0.0
 11
84.993882197188796
 21
-129.71014794065951
 31
0.0
  0
LINE
  5
4B3
  8
DATA
  6
CONTINUOUS
 62
     7
 10
90.993762197188815
 20
-130.16004794065961
 30
0.0
 11
84.993882197188796
 21
-129.71014794065951
 31
0.0
  0
LINE
  5
4B4
  8
DATA
  6
CONTINUOUS
 62
     7
 10
90.993762197188815
 20
-129.26014794065961
 30
0.0
 11
90.993762197188815
 21
-130.16004794065961
 31
0.0
  0
LINE
  5
4B5
  8
DATA
  6
CONTINUOUS
 62
     7
 10
90.993762197188815
 20
-131.26014794065961
 30
0.0
 11
84.993882197188796
 21
-131.71014794065971
 31
0.0
  0
LINE
  5
4B6
  8
DATA
  6
CONTINUOUS
 62
     7
 10
90.993762197188815
 20
-132.16004794065961
 30
0.0
 11
84.993882197188796
 21
-131.71014794065971
 31
0.0
  0
LINE
  5
4B7
  8
DATA
  6
CONTINUOUS
 62
     7
 10
90.993762197188815
 20
-131.26014794065961
 30
0.0
 11
90.993762197188815
 21
-132.16004794065961
 31
0.0
  0
LINE
  5
4B8
  8
DATA
  6
CONTINUOUS
 62
     7
 10
90.993762197188815
 20
-135.26014794065949
 30
0.0
 11
84.993882197188796
 21
-135.7100379406595
 31
0.0
  0
LINE
  5
4B9
  8
DATA
  6
CONTINUOUS
 62
     7
 10
90.993762197188815
 20
-136.1600479406595
 30
0.0
 11
84.993882197188796
 21
-135.7100379406595
 31
0.0
  0
LINE
  5
4BA
  8
DATA
  6
CONTINUOUS
 62
     7
 10
90.993762197188815
 20
-135.26014794065949
 30
0.0
 11
90.993762197188815
 21
-136.1600479406595
 31
0.0
  0
LINE
  5
4BB
  8
DATA
  6
CONTINUOUS
 62
     7
 10
90.993762197188815
 20
-137.26014794065949
 30
0.0
 11
84.993882197188796
 21
-137.7100379406595
 31
0.0
  0
LINE
  5
4BC
  8
DATA
  6
CONTINUOUS
 62
     7
 10
90.993762197188815
 20
-138.1600279406596
 30
0.0
 11
84.993882197188796
 21
-137.7100379406595
 31
0.0
  0
LINE
  5
4BD
  8
DATA
  6
CONTINUOUS
 62
     7
 10
90.993762197188815
 20
-137.26014794065949
 30
0.0
 11
90.993762197188815
 21
-138.1600279406596
 31
0.0
  0
CIRCLE
  5
4BE
  8
DATA
  6
CONTINUOUS
 62
     7
 10
129.15680000025199
 20
-133.38336002249829
 30
0.0
 40
0.6279809320001278
  0
CIRCLE
  5
4BF
  8
DATA
  6
CONTINUOUS
 62
     7
 10
133.34320000025201
 20
-133.38336002249829
 30
0.0
 40
0.6278867380000861
  0
CIRCLE
  5
4C0
  8
DATA
  6
CONTINUOUS
 62
     7
 10
131.25000000025199
 20
-136.0422756821952
 30
0.0
 40
0.6278553400000533
  0
LINE
  5
4C1
  8
DATA
  6
CONTINUOUS
 62
     7
 10
130.203400000252
 20
-129.6267328081953
 30
0.0
 11
130.203400000252
 21
-130.43876881619519
 31
0.0
  0
LINE
  5
4C2
  8
DATA
  6
CONTINUOUS
 62
     7
 10
132.296600000252
 20
-129.6267328081953
 30
0.0
 11
132.296600000252
 21
-130.43876881619519
 31
0.0
  0
LINE
  5
4C3
  8
DATA
  6
CONTINUOUS
 62
     7
 10
128.98305393425201
 20
-131.07092568219531
 30
0.0
 11
133.5157634082519
 21
-131.07092568219531
 31
0.0
  0
ARC
  5
4C4
  8
DATA
  6
CONTINUOUS
 62
     7
 10
131.25000000025199
 20
-133.9490756821952
 30
0.0
 40
3.6630077605004878
 50
106.6019797549919
 51
73.398020245008183
  0
ARC
  5
4C5
  8
DATA
  6
CONTINUOUS
 62
     7
 10
131.25000000025199
 20
-133.9490756821952
 30
0.0
 40
4.4472485291940034
 50
103.61146039991721
 51
76.401326097578789
  0
LINE
  5
4C6
  8
DATA
  6
CONTINUOUS
 62
     7
 10
129.50113140025209
 20
-130.73079114819529
 30
0.0
 11
132.997717340252
 21
-130.73079114819529
 31
0.0
  0
LINE
  5
4C7
  8
DATA
  6
CONTINUOUS
 62
     7
 10
130.30795534025211
 20
-128.9777256821952
 30
0.0
 11
132.19180394225211
 21
-128.9777256821952
 31
0.0
  0
LINE
  5
4C8
  8
DATA
  6
CONTINUOUS
 62
     7
 10
132.19180394225211
 20
-128.9777256821952
 30
0.0
 11
132.19180394225211
 21
-130.6115834081952
 31
0.0
  0
LINE
  5
4C9
  8
DATA
  6
CONTINUOUS
 62
     7
 10
132.19180394225211
 20
-130.6115834081952
 30
0.0
 11
130.30795534025211
 21
-130.6115834081952
 31
0.0
  0
LINE
  5
4CA
  8
DATA
  6
CONTINUOUS
 62
     7
 10
130.30795534025211
 20
-130.6115834081952
 30
0.0
 11
130.30795534025211
 21
-128.9777256821952
 31
0.0
  0
CIRCLE
  5
4CB
  8
DATA
  6
CONTINUOUS
 62
     7
 10
131.25000000025199
 20
-133.9490756821952
 30
0.0
 40
5.494555805999993
  0
LINE
  5
4CC
  8
DATA
  6
CONTINUOUS
 62
     7
 10
129.680100000252
 20
-128.6837462081952
 30
0.0
 11
129.680100000252
 21
-127.8568066161952
 31
0.0
  0
LINE
  5
4CD
  8
DATA
  6
CONTINUOUS
 62
     7
 10
132.81990000025201
 20
-127.8568066161952
 30
0.0
 11
132.81990000025201
 21
-128.6837462081952
 31
0.0
  0
ARC
  5
4CE
  8
DATA
  6
CONTINUOUS
 62
     7
 10
131.25000000025199
 20
-128.63861681619531
 30
0.0
 40
1.7537996461466641
 50
26.473304610960589
 51
153.52669538903939
  0
CIRCLE
  5
4CF
  8
DATA
  6
CONTINUOUS
 62
     7
 10
131.25000000025199
 20
-133.9490756821952
 30
0.0
 40
5.494555805999993
  0
ARC
  5
4D0
  8
DATA
  6
CONTINUOUS
 62
     7
 10
101.46168219718891
 20
-128.63608794065959
 30
0.0
 40
1.6756891300297769
 50
26.47330338667992
 51
153.52700145607321
  0
LINE
  5
4D1
  8
DATA
  6
CONTINUOUS
 62
     7
 10
99.961672197188804
 20
-127.8890979406597
 30
0.0
 11
99.961672197188804
 21
-128.46014794065951
 31
0.0
  0
LINE
  5
4D2
  8
DATA
  6
CONTINUOUS
 62
     7
 10
102.9616621971888
 20
-127.8890979406597
 30
0.0
 11
102.9616621971888
 21
-128.46014794065951
 31
0.0
  0
LINE
  5
4D3
  8
DATA
  6
CONTINUOUS
 62
     7
 10
60.993842197188037
 20
-131.71009294065959
 30
0.0
 11
60.993842197188037
 21
-135.71009294065959
 31
0.0
  0
LINE
  5
4D4
  8
DATA
  6
CONTINUOUS
 62
     7
 10
77.993842197188343
 20
-131.21009294065959
 30
0.0
 11
60.993842197188037
 21
-131.71009294065959
 31
0.0
  0
LINE
  5
4D5
  8
DATA
  6
CONTINUOUS
 62
     7
 10
77.993842197188343
 20
-136.21009294065959
 30
0.0
 11
60.993842197188037
 21
-135.71009294065959
 31
0.0
  0
LINE
  5
4D6
  8
DATA
  6
CONTINUOUS
 62
     7
 10
239.02158737248479
 20
-32.749750000371883
 30
0.0
 11
238.27158737248479
 21
-19.749830000371482
 31
0.0
  0
LINE
  5
4D7
  8
DATA
  6
CONTINUOUS
 62
     7
 10
248.50787181550061
 20
-32.749750000371883
 30
0.0
 11
249.25787181550061
 21
-19.749830000371482
 31
0.0
  0
LINE
  5
4D8
  8
DATA
  6
CONTINUOUS
 62
     7
 10
239.02158737248479
 20
-32.749750000371883
 30
0.0
 11
248.50787181550061
 21
-32.749750000371883
 31
0.0
  0
LINE
  5
4D9
  8
DATA
  6
CONTINUOUS
 62
     7
 10
238.27158737248479
 20
-19.749830000371482
 30
0.0
 11
238.27158737248479
 21
-13.24978000037148
 31
0.0
  0
LINE
  5
4DA
  8
DATA
  6
CONTINUOUS
 62
     7
 10
249.25787181550061
 20
-19.749830000371482
 30
0.0
 11
249.25787181550061
 21
-13.24978000037148
 31
0.0
  0
LINE
  5
4DB
  8
DATA
  6
CONTINUOUS
 62
     7
 10
238.27158737248479
 20
-13.24978000037148
 30
0.0
 11
249.25787181550061
 21
-13.24978000037148
 31
0.0
  0
LINE
  5
4DC
  8
DATA
  6
CONTINUOUS
 62
     7
 10
238.27158737248479
 20
-13.24978000037148
 30
0.0
 11
238.27158737248479
 21
-5.7500000003712719
 31
0.0
  0
LINE
  5
4DD
  8
DATA
  6
CONTINUOUS
 62
     7
 10
249.25787181550061
 20
-5.7500000003712719
 30
0.0
 11
249.25787181550061
 21
-13.24978000037148
 31
0.0
  0
LINE
  5
4DE
  8
DATA
  6
CONTINUOUS
 62
     7
 10
238.27158737248479
 20
-13.149860000371371
 30
0.0
 11
249.25787181550061
 21
-13.149860000371371
 31
0.0
  0
LINE
  5
4DF
  8
DATA
  6
CONTINUOUS
 62
     7
 10
243.07158737248469
 20
-19.749830000371482
 30
0.0
 11
243.52156737248481
 21
-25.74971000037155
 31
0.0
  0
LINE
  5
4E0
  8
DATA
  6
CONTINUOUS
 62
     7
 10
243.97148737248489
 20
-19.749830000371482
 30
0.0
 11
243.52156737248481
 21
-25.74971000037155
 31
0.0
  0
LINE
  5
4E1
  8
DATA
  6
CONTINUOUS
 62
     7
 10
243.97148737248489
 20
-19.749830000371482
 30
0.0
 11
243.07158737248469
 21
-19.749830000371482
 31
0.0
  0
LINE
  5
4E2
  8
DATA
  6
CONTINUOUS
 62
     7
 10
239.07158737248491
 20
-19.749830000371482
 30
0.0
 11
239.52158737248479
 21
-25.74971000037155
 31
0.0
  0
LINE
  5
4E3
  8
DATA
  6
CONTINUOUS
 62
     7
 10
239.97148737248489
 20
-19.749830000371482
 30
0.0
 11
239.52158737248479
 21
-25.74971000037155
 31
0.0
  0
LINE
  5
4E4
  8
DATA
  6
CONTINUOUS
 62
     7
 10
239.07158737248491
 20
-19.749830000371482
 30
0.0
 11
239.97148737248489
 21
-19.749830000371482
 31
0.0
  0
LINE
  5
4E5
  8
DATA
  6
CONTINUOUS
 62
     7
 10
241.07158737248491
 20
-19.749830000371482
 30
0.0
 11
241.5215873724849
 21
-25.74971000037155
 31
0.0
  0
LINE
  5
4E6
  8
DATA
  6
CONTINUOUS
 62
     7
 10
241.97148737248489
 20
-19.749830000371482
 30
0.0
 11
241.5215873724849
 21
-25.74971000037155
 31
0.0
  0
LINE
  5
4E7
  8
DATA
  6
CONTINUOUS
 62
     7
 10
241.07158737248491
 20
-19.749830000371482
 30
0.0
 11
241.97148737248489
 21
-19.749830000371482
 31
0.0
  0
LINE
  5
4E8
  8
DATA
  6
CONTINUOUS
 62
     7
 10
245.07158737248469
 20
-19.749830000371482
 30
0.0
 11
245.52147737248461
 21
-25.74971000037155
 31
0.0
  0
LINE
  5
4E9
  8
DATA
  6
CONTINUOUS
 62
     7
 10
245.9714873724846
 20
-19.749830000371482
 30
0.0
 11
245.52147737248461
 21
-25.74971000037155
 31
0.0
  0
LINE
  5
4EA
  8
DATA
  6
CONTINUOUS
 62
     7
 10
245.07158737248469
 20
-19.749830000371482
 30
0.0
 11
245.9714873724846
 21
-19.749830000371482
 31
0.0
  0
LINE
  5
4EB
  8
DATA
  6
CONTINUOUS
 62
     7
 10
247.07158737248449
 20
-19.749830000371482
 30
0.0
 11
247.5214773724845
 21
-25.74971000037155
 31
0.0
  0
LINE
  5
4EC
  8
DATA
  6
CONTINUOUS
 62
     7
 10
247.97146737248451
 20
-19.749830000371482
 30
0.0
 11
247.5214773724845
 21
-25.74971000037155
 31
0.0
  0
LINE
  5
4ED
  8
DATA
  6
CONTINUOUS
 62
     7
 10
247.07158737248449
 20
-19.749830000371482
 30
0.0
 11
247.97146737248451
 21
-19.749830000371482
 31
0.0
  0
LINE
  5
4EE
  8
DATA
  6
CONTINUOUS
 62
     7
 10
241.52153237248481
 20
-49.749750000372103
 30
0.0
 11
245.52153237248481
 21
-49.749750000372103
 31
0.0
  0
LINE
  5
4EF
  8
DATA
  6
CONTINUOUS
 62
     7
 10
241.02153237248481
 20
-32.749750000371883
 30
0.0
 11
241.52153237248481
 21
-49.749750000372103
 31
0.0
  0
LINE
  5
4F0
  8
DATA
  6
CONTINUOUS
 62
     7
 10
246.0215323724847
 20
-32.749750000371883
 30
0.0
 11
245.52153237248481
 21
-49.749750000372103
 31
0.0
  0
LINE
  5
4F1
  8
DATA
  6
CONTINUOUS
 62
     7
 10
244.52153237248481
 20
-49.749750000372103
 30
0.0
 11
244.52153237248481
 21
-67.0
 31
0.0
  0
LINE
  5
4F2
  8
DATA
  6
CONTINUOUS
 62
     7
 10
242.52153237248481
 20
-49.749750000372103
 30
0.0
 11
242.52153237248481
 21
-67.0
 31
0.0
  0
ARC
  5
4F3
  8
DATA
  6
STYLE_01
 62
     7
 10
-37.500000000292928
 20
190.19504384536481
 30
0.0
 40
17.800000000000011
 50
298.5790494762349
 51
241.42095052376499
  0
LINE
  5
4F4
  8
DATA
  6
STYLE_01
 62
     7
 10
-46.015000000656222
 20
174.5638322802362
 30
0.0
 11
-28.984999999929659
 21
174.5638322802362
 31
0.0
  0
TEXT
  5
4F5
  8
DATA
 62
     7
 10
-0.953548116328847
 20
219.90564795111601
 30
0.0
 40
8.1442057291666661
  1
ウインドスクリーン
 41
0.7
 11
-0.9535481163288466
 21
228.04985368028261
 31
0.0
 73
     3
  0
LINE
  5
4F6
  8
DATA
  6
CONTINUOUS
 62
     7
 10
-8.4950000006562334
 20
217.16048239529729
 30
0.0
 11
-25.575563580362569
 21
203.41048239529729
 31
0.0
  0
LINE
  5
4F7
  8
DATA
  6
CONTINUOUS
 62
     7
 10
-25.575563580362569
 20
203.41048239529729
 30
0.0
 11
-19.641062255819062
 21
211.28583164693219
 31
0.0
  0
LINE
  5
4F8
  8
DATA
  6
CONTINUOUS
 62
     7
 10
-25.575563580362569
 20
203.41048239529729
 30
0.0
 11
-16.498460048698021
 21
207.26348424861621
 31
0.0
  0
LINE
  5
4F9
  8
DATA
  6
CONTINUOUS
 62
     7
 10
-8.4950000006562334
 20
217.16048239529729
 30
0.0
 11
95.433720870220853
 21
217.16048239529729
 31
0.0
  0
ARC
  5
4FA
  8
DATA
  6
STYLE_01
 62
     7
 10
244.0245454098837
 20
190.3141069823568
 30
0.0
 40
17.799999999999979
 50
298.57904947623467
 51
241.42095052376499
  0
LINE
  5
4FB
  8
DATA
  6
STYLE_01
 62
     7
 10
235.5095454095204
 20
174.68289541722811
 30
0.0
 11
252.53954541024689
 21
174.68289541722811
 31
0.0
  0
CIRCLE
  5
4FC
  8
DATA
  6
STYLE_01
 62
     7
 10
-37.795000000656231
 20
294.14904752344188
 30
0.0
 40
17.79999999999999
  0
LINE
  5
4FD
  8
DATA
  6
CONTINUOUS
 62
     7
 10
-40.450000000292917
 20
84.0
 30
0.0
 11
-34.55000000029294
 21
84.950000000000017
 31
0.0
  0
LINE
  5
4FE
  8
DATA
  6
CONTINUOUS
 62
     7
 10
-40.450000000292917
 20
82.0
 30
0.0
 11
-34.55000000029294
 21
82.950000000000017
 31
0.0
  0
LINE
  5
4FF
  8
DATA
  6
CONTINUOUS
 62
     7
 10
-40.450000000292917
 20
80.0
 30
0.0
 11
-34.55000000029294
 21
80.950000000000017
 31
0.0
  0
LINE
  5
500
  8
DATA
  6
CONTINUOUS
 62
     7
 10
-40.450000000292917
 20
78.0
 30
0.0
 11
-34.55000000029294
 21
78.950000000000017
 31
0.0
  0
LINE
  5
501
  8
DATA
  6
CONTINUOUS
 62
     7
 10
-40.450000000292917
 20
76.0
 30
0.0
 11
-34.55000000029294
 21
76.950000000000017
 31
0.0
  0
LINE
  5
502
  8
DATA
  6
CONTINUOUS
 62
     7
 10
-40.450000000292917
 20
74.0
 30
0.0
 11
-34.55000000029294
 21
74.950000000000017
 31
0.0
  0
LINE
  5
503
  8
DATA
  6
CONTINUOUS
 62
     7
 10
-40.450000000292917
 20
72.0
 30
0.0
 11
-34.55000000029294
 21
72.950000000000017
 31
0.0
  0
LINE
  5
504
  8
DATA
  6
CONTINUOUS
 62
     7
 10
-40.450000000292917
 20
70.0
 30
0.0
 11
-34.55000000029294
 21
70.950000000000017
 31
0.0
  0
LINE
  5
505
  8
DATA
  6
CONTINUOUS
 62
     7
 10
-40.450000000292917
 20
68.0
 30
0.0
 11
-34.55000000029294
 21
68.950000000000017
 31
0.0
  0
LINE
  5
506
  8
DATA
  6
CONTINUOUS
 62
     7
 10
-40.450000000292917
 20
66.0
 30
0.0
 11
-34.55000000029294
 21
66.950000000000017
 31
0.0
  0
LINE
  5
507
  8
DATA
  6
CONTINUOUS
 62
     7
 10
-40.450000000292917
 20
64.0
 30
0.0
 11
-34.55000000029294
 21
64.950000000000017
 31
0.0
  0
LINE
  5
508
  8
DATA
  6
CONTINUOUS
 62
     7
 10
-40.450000000292917
 20
62.0
 30
0.0
 11
-34.55000000029294
 21
62.95000000000001
 31
0.0
  0
LINE
  5
509
  8
DATA
  6
CONTINUOUS
 62
     7
 10
-40.450000000292917
 20
60.0
 30
0.0
 11
-34.55000000029294
 21
60.950000000000017
 31
0.0
  0
LINE
  5
50A
  8
DATA
  6
CONTINUOUS
 62
     7
 10
-40.450000000292917
 20
58.0
 30
0.0
 11
-34.55000000029294
 21
58.950000000000017
 31
0.0
  0
LINE
  5
50B
  8
DATA
  6
CONTINUOUS
 62
     7
 10
-40.450000000292917
 20
56.0
 30
0.0
 11
-34.55000000029294
 21
56.950000000000017
 31
0.0
  0
LINE
  5
50C
  8
DATA
  6
CONTINUOUS
 62
     7
 10
-40.450000000292917
 20
54.0
 30
0.0
 11
-34.55000000029294
 21
54.95000000000001
 31
0.0
  0
LINE
  5
50D
  8
DATA
  6
CONTINUOUS
 62
     7
 10
-40.450000000292917
 20
52.0
 30
0.0
 11
-34.55000000029294
 21
52.95000000000001
 31
0.0
  0
LINE
  5
50E
  8
DATA
  6
CONTINUOUS
 62
     7
 10
-40.450000000292917
 20
50.0
 30
0.0
 11
-34.55000000029294
 21
50.950000000000017
 31
0.0
  0
LINE
  5
50F
  8
DATA
  6
CONTINUOUS
 62
     7
 10
-40.450000000292917
 20
48.0
 30
0.0
 11
-34.55000000029294
 21
48.950000000000017
 31
0.0
  0
LINE
  5
510
  8
DATA
  6
CONTINUOUS
 62
     7
 10
-40.450000000292917
 20
46.0
 30
0.0
 11
-34.55000000029294
 21
46.950000000000017
 31
0.0
  0
LINE
  5
511
  8
DATA
  6
CONTINUOUS
 62
     7
 10
-40.450000000292917
 20
44.0
 30
0.0
 11
-34.55000000029294
 21
44.95000000000001
 31
0.0
  0
LINE
  5
512
  8
DATA
  6
CONTINUOUS
 62
     7
 10
-40.450000000292917
 20
42.0
 30
0.0
 11
-34.55000000029294
 21
42.95000000000001
 31
0.0
  0
LINE
  5
513
  8
DATA
  6
CONTINUOUS
 62
     7
 10
-40.450000000292917
 20
40.0
 30
0.0
 11
-34.55000000029294
 21
40.95000000000001
 31
0.0
  0
LINE
  5
514
  8
DATA
  6
CONTINUOUS
 62
     7
 10
-40.450000000292917
 20
38.0
 30
0.0
 11
-34.55000000029294
 21
38.950000000000017
 31
0.0
  0
LINE
  5
515
  8
DATA
  6
CONTINUOUS
 62
     7
 10
-40.450000000292917
 20
36.0
 30
0.0
 11
-34.55000000029294
 21
36.950000000000017
 31
0.0
  0
LINE
  5
516
  8
DATA
  6
CONTINUOUS
 62
     7
 10
-40.450000000292917
 20
34.0
 30
0.0
 11
-34.55000000029294
 21
34.950000000000017
 31
0.0
  0
LINE
  5
517
  8
DATA
  6
CONTINUOUS
 62
     7
 10
-40.450000000292917
 20
32.0
 30
0.0
 11
-34.55000000029294
 21
32.950000000000017
 31
0.0
  0
LINE
  5
518
  8
DATA
  6
CONTINUOUS
 62
     7
 10
-31.815000000656209
 20
-5.3499999999999934
 30
0.0
 11
-43.289402715859218
 21
-5.3499999999999934
 31
0.0
  0
LINE
  5
519
  8
DATA
  6
CONTINUOUS
 62
     7
 10
-44.500000000292928
 20
-4.75
 30
0.0
 11
-30.500000000292928
 21
-4.75
 31
0.0
  0
LINE
  5
51A
  8
DATA
  6
CONTINUOUS
 62
     7
 10
-43.289402715859218
 20
-5.3499999999999934
 30
0.0
 11
-43.289402715859218
 21
-4.75
 31
0.0
  0
LINE
  5
51B
  8
DATA
  6
CONTINUOUS
 62
     7
 10
-31.815000000656209
 20
-5.3499999999999934
 30
0.0
 11
-31.815000000656209
 21
-4.75
 31
0.0
  0
LINE
  5
51C
  8
DATA
  6
CONTINUOUS
 62
     7
 10
-50.295000000292937
 20
21.249999999999979
 30
0.0
 11
-51.395000000292931
 21
21.249999999999979
 31
0.0
  0
LINE
  5
51D
  8
DATA
  6
CONTINUOUS
 62
     7
 10
-74.395000000292939
 20
21.249999999999979
 30
0.0
 11
-75.495000000292933
 21
21.249999999999979
 31
0.0
  0
LINE
  5
51E
  8
DATA
  6
CONTINUOUS
 62
     7
 10
-50.295000000292937
 20
10.25
 30
0.0
 11
-75.495000000292933
 21
10.25
 31
0.0
  0
LINE
  5
51F
  8
DATA
  6
CONTINUOUS
 62
     7
 10
-75.495000000292933
 20
10.25
 30
0.0
 11
-75.495000000292933
 21
21.249999999999979
 31
0.0
  0
LINE
  5
520
  8
DATA
  6
CONTINUOUS
 62
     7
 10
-74.395000000292939
 20
-18.75
 30
0.0
 11
-74.395000000292939
 21
22.25
 31
0.0
  0
LINE
  5
521
  8
DATA
  6
CONTINUOUS
 62
     7
 10
-51.395000000292931
 20
22.25
 30
0.0
 11
-51.395000000292931
 21
-18.75
 31
0.0
  0
LINE
  5
522
  8
DATA
  6
CONTINUOUS
 62
     7
 10
-74.395000000292939
 20
15.75
 30
0.0
 11
-72.395000000292939
 21
15.75
 31
0.0
  0
LINE
  5
523
  8
DATA
  6
CONTINUOUS
 62
     7
 10
-53.395000000292939
 20
15.75
 30
0.0
 11
-51.395000000292931
 21
15.75
 31
0.0
  0
POLYLINE
  5
524
  8
DATA
  6
CONTINUOUS
 62
     7
 66
     1
 10
0.0
 20
0.0
 30
0.0
 70
     1
  0
VERTEX
  5
81B
  8
DATA
  6
CONTINUOUS
 62
     7
 10
-72.395000000292939
 20
19.25
 30
0.0
  0
VERTEX
  5
81C
  8
DATA
  6
CONTINUOUS
 62
     7
 10
-53.395000000292939
 20
19.25
 30
0.0
  0
VERTEX
  5
81D
  8
DATA
  6
CONTINUOUS
 62
     7
 10
-53.395000000292939
 20
12.25
 30
0.0
  0
VERTEX
  5
81E
  8
DATA
  6
CONTINUOUS
 62
     7
 10
-72.395000000292939
 20
12.25
 30
0.0
  0
SEQEND
  5
81F
  8
DATA
  6
CONTINUOUS
 62
     7
  0
ARC
  5
52B
  8
DATA
  6
CONTINUOUS
 62
     7
 10
-70.145000004349427
 20
8.0000000040564885
 30
0.0
 40
4.8088460099347792
 50
117.8972710108464
 51
152.10272898915349
  0
ARC
  5
52C
  8
DATA
  6
CONTINUOUS
 62
     7
 10
-55.64499999623645
 20
8.0000000040564885
 30
0.0
 40
4.8088460099347792
 50
27.89727101084646
 51
62.10272898915354
  0
LINE
  5
52D
  8
DATA
  6
CONTINUOUS
 62
     7
 10
-70.395000000292939
 20
-11.489465256141671
 30
0.0
 11
-70.395000000292939
 21
10.25
 31
0.0
  0
LINE
  5
52E
  8
DATA
  6
CONTINUOUS
 62
     7
 10
-55.395000000292939
 20
10.25
 30
0.0
 11
-55.395000000292939
 21
-11.489465256141671
 31
0.0
  0
CIRCLE
  5
52F
  8
DATA
  6
CONTINUOUS
 62
     7
 10
-62.895000000292939
 20
-10.73336620467432
 30
0.0
 40
7.5
  0
LINE
  5
530
  8
DATA
  6
CONTINUOUS
 62
     7
 10
-66.822433480386138
 20
-4.3439009485326494
 30
0.0
 11
-58.967566520199739
 21
-4.3439009485326494
 31
0.0
  0
LINE
  5
531
  8
DATA
  6
CONTINUOUS
 62
     7
 10
-68.97633166080314
 20
-6.3439009485326494
 30
0.0
 11
-56.813668339782708
 21
-6.3439009485326494
 31
0.0
  0
LINE
  5
532
  8
DATA
  6
CONTINUOUS
 62
     7
 10
-70.004181091648732
 20
-8.3439009485326494
 30
0.0
 11
-55.785818908937138
 21
-8.3439009485326494
 31
0.0
  0
LINE
  5
533
  8
DATA
  6
CONTINUOUS
 62
     7
 10
-70.38488096158035
 20
-10.343900948532641
 30
0.0
 11
-55.405119039005527
 21
-10.343900948532641
 31
0.0
  0
LINE
  5
534
  8
DATA
  6
CONTINUOUS
 62
     7
 10
-70.220037736634254
 20
-12.343900948532649
 30
0.0
 11
-55.569962263951609
 21
-12.343900948532649
 31
0.0
  0
LINE
  5
535
  8
DATA
  6
CONTINUOUS
 62
     7
 10
-69.468738576125531
 20
-14.343900948532649
 30
0.0
 11
-56.32126142446036
 21
-14.343900948532649
 31
0.0
  0
LINE
  5
536
  8
DATA
  6
CONTINUOUS
 62
     7
 10
-67.872137720705993
 20
-16.343900948532649
 30
0.0
 11
-57.917862279879891
 21
-16.343900948532649
 31
0.0
  0
LINE
  5
537
  8
DATA
  6
CONTINUOUS
 62
     7
 10
-53.395000000292939
 20
15.65
 30
0.0
 11
-72.395000000292939
 21
15.65
 31
0.0
  0
LINE
  5
538
  8
DATA
  6
CONTINUOUS
 62
     7
 10
-72.395000000292939
 20
15.849999999999991
 30
0.0
 11
-53.395000000292939
 21
15.849999999999991
 31
0.0
  0
LINE
  5
539
  8
DATA
  6
CONTINUOUS
 62
     7
 10
-74.395000000292939
 20
-18.75
 30
0.0
 11
-51.395000000292931
 21
-18.75
 31
0.0
  0
LINE
  5
53A
  8
DATA
  6
CONTINUOUS
 62
     7
 10
-74.395000000292939
 20
22.25
 30
0.0
 11
-51.395000000292931
 21
22.25
 31
0.0
  0
ARC
  5
53B
  8
DATA
  6
CONTINUOUS
 62
     7
 10
-69.345000000292956
 20
23.449999999999989
 30
0.0
 40
5.190616533707705
 50
193.3669306963167
 51
234.01320435564281
  0
ARC
  5
53C
  8
DATA
  6
CONTINUOUS
 62
     7
 10
-56.445000000292922
 20
23.449999999999989
 30
0.0
 40
5.190616533707705
 50
305.98679564435719
 51
346.63306930368321
  0
LINE
  5
53D
  8
DATA
  6
CONTINUOUS
 62
     7
 10
240.7949999996633
 20
84.0
 30
0.0
 11
246.69499999966331
 21
84.950000000000017
 31
0.0
  0
LINE
  5
53E
  8
DATA
  6
CONTINUOUS
 62
     7
 10
240.7949999996633
 20
82.0
 30
0.0
 11
246.69499999966331
 21
82.950000000000017
 31
0.0
  0
LINE
  5
53F
  8
DATA
  6
CONTINUOUS
 62
     7
 10
240.7949999996633
 20
80.0
 30
0.0
 11
246.69499999966331
 21
80.950000000000017
 31
0.0
  0
LINE
  5
540
  8
DATA
  6
CONTINUOUS
 62
     7
 10
240.7949999996633
 20
78.0
 30
0.0
 11
246.69499999966331
 21
78.950000000000017
 31
0.0
  0
LINE
  5
541
  8
DATA
  6
CONTINUOUS
 62
     7
 10
240.7949999996633
 20
76.0
 30
0.0
 11
246.69499999966331
 21
76.950000000000017
 31
0.0
  0
LINE
  5
542
  8
DATA
  6
CONTINUOUS
 62
     7
 10
240.7949999996633
 20
74.0
 30
0.0
 11
246.69499999966331
 21
74.950000000000017
 31
0.0
  0
LINE
  5
543
  8
DATA
  6
CONTINUOUS
 62
     7
 10
240.7949999996633
 20
72.0
 30
0.0
 11
246.69499999966331
 21
72.950000000000017
 31
0.0
  0
LINE
  5
544
  8
DATA
  6
CONTINUOUS
 62
     7
 10
240.7949999996633
 20
70.0
 30
0.0
 11
246.69499999966331
 21
70.950000000000017
 31
0.0
  0
LINE
  5
545
  8
DATA
  6
CONTINUOUS
 62
     7
 10
240.7949999996633
 20
68.0
 30
0.0
 11
246.69499999966331
 21
68.950000000000017
 31
0.0
  0
LINE
  5
546
  8
DATA
  6
CONTINUOUS
 62
     7
 10
240.7949999996633
 20
66.0
 30
0.0
 11
246.69499999966331
 21
66.950000000000017
 31
0.0
  0
LINE
  5
547
  8
DATA
  6
CONTINUOUS
 62
     7
 10
240.7949999996633
 20
64.0
 30
0.0
 11
246.69499999966331
 21
64.950000000000017
 31
0.0
  0
LINE
  5
548
  8
DATA
  6
CONTINUOUS
 62
     7
 10
240.7949999996633
 20
62.0
 30
0.0
 11
246.69499999966331
 21
62.95000000000001
 31
0.0
  0
LINE
  5
549
  8
DATA
  6
CONTINUOUS
 62
     7
 10
240.7949999996633
 20
60.0
 30
0.0
 11
246.69499999966331
 21
60.950000000000017
 31
0.0
  0
LINE
  5
54A
  8
DATA
  6
CONTINUOUS
 62
     7
 10
240.7949999996633
 20
58.0
 30
0.0
 11
246.69499999966331
 21
58.950000000000017
 31
0.0
  0
LINE
  5
54B
  8
DATA
  6
CONTINUOUS
 62
     7
 10
240.7949999996633
 20
56.0
 30
0.0
 11
246.69499999966331
 21
56.950000000000017
 31
0.0
  0
LINE
  5
54C
  8
DATA
  6
CONTINUOUS
 62
     7
 10
240.7949999996633
 20
54.0
 30
0.0
 11
246.69499999966331
 21
54.95000000000001
 31
0.0
  0
LINE
  5
54D
  8
DATA
  6
CONTINUOUS
 62
     7
 10
240.7949999996633
 20
52.0
 30
0.0
 11
246.69499999966331
 21
52.95000000000001
 31
0.0
  0
LINE
  5
54E
  8
DATA
  6
CONTINUOUS
 62
     7
 10
240.7949999996633
 20
50.0
 30
0.0
 11
246.69499999966331
 21
50.950000000000017
 31
0.0
  0
LINE
  5
54F
  8
DATA
  6
CONTINUOUS
 62
     7
 10
240.7949999996633
 20
48.0
 30
0.0
 11
246.69499999966331
 21
48.950000000000017
 31
0.0
  0
LINE
  5
550
  8
DATA
  6
CONTINUOUS
 62
     7
 10
240.7949999996633
 20
46.0
 30
0.0
 11
246.69499999966331
 21
46.950000000000017
 31
0.0
  0
LINE
  5
551
  8
DATA
  6
CONTINUOUS
 62
     7
 10
240.7949999996633
 20
44.0
 30
0.0
 11
246.69499999966331
 21
44.95000000000001
 31
0.0
  0
LINE
  5
552
  8
DATA
  6
CONTINUOUS
 62
     7
 10
240.7949999996633
 20
42.0
 30
0.0
 11
246.69499999966331
 21
42.95000000000001
 31
0.0
  0
LINE
  5
553
  8
DATA
  6
CONTINUOUS
 62
     7
 10
240.7949999996633
 20
40.0
 30
0.0
 11
246.69499999966331
 21
40.95000000000001
 31
0.0
  0
LINE
  5
554
  8
DATA
  6
CONTINUOUS
 62
     7
 10
240.7949999996633
 20
38.0
 30
0.0
 11
246.69499999966331
 21
38.950000000000017
 31
0.0
  0
LINE
  5
555
  8
DATA
  6
CONTINUOUS
 62
     7
 10
240.7949999996633
 20
36.0
 30
0.0
 11
246.69499999966331
 21
36.950000000000017
 31
0.0
  0
LINE
  5
556
  8
DATA
  6
CONTINUOUS
 62
     7
 10
240.7949999996633
 20
34.0
 30
0.0
 11
246.69499999966331
 21
34.950000000000017
 31
0.0
  0
LINE
  5
557
  8
DATA
  6
CONTINUOUS
 62
     7
 10
240.7949999996633
 20
32.0
 30
0.0
 11
246.69499999966331
 21
32.950000000000017
 31
0.0
  0
LINE
  5
558
  8
DATA
  6
CONTINUOUS
 62
     7
 10
194.22499999954479
 20
19.25
 30
0.0
 11
194.22499999954479
 21
15.849999999999991
 31
0.0
  0
LINE
  5
559
  8
DATA
  6
CONTINUOUS
 62
     7
 10
194.22499999954479
 20
15.65
 30
0.0
 11
194.22499999954479
 21
12.25
 31
0.0
  0
LINE
  5
55A
  8
DATA
  6
CONTINUOUS
 62
     7
 10
194.22499999954479
 20
19.25
 30
0.0
 11
203.09005277411481
 21
19.25
 31
0.0
  0
LINE
  5
55B
  8
DATA
  6
CONTINUOUS
 62
     7
 10
194.22499999954479
 20
12.25
 30
0.0
 11
203.09005277411509
 21
12.25
 31
0.0
  0
LINE
  5
55C
  8
DATA
  6
CONTINUOUS
 62
     7
 10
232.68188115544191
 20
-18.75
 30
0.0
 11
235.9818811554419
 21
-18.75
 31
0.0
  0
ARC
  5
55D
  8
DATA
  6
CONTINUOUS
 62
     7
 10
228.9818811554419
 20
15.75
 30
0.0
 40
7.0
 50
0.0
 51
301.90898273531712
  0
CIRCLE
  5
55E
  8
DATA
  6
CONTINUOUS
 62
     7
 10
228.9818811554419
 20
15.75
 30
0.0
 40
1.0
  0
CIRCLE
  5
55F
  8
DATA
  6
CONTINUOUS
 62
     7
 10
228.9818811554419
 20
15.75
 30
0.0
 40
4.25
  0
LINE
  5
560
  8
DATA
  6
CONTINUOUS
 62
     7
 10
235.9818811554419
 20
15.75
 30
0.0
 11
235.9818811554419
 21
-18.75
 31
0.0
  0
LINE
  5
561
  8
DATA
  6
CONTINUOUS
 62
     7
 10
232.68188115544191
 20
9.8077781933018002
 30
0.0
 11
232.68188115544191
 21
-18.75
 31
0.0
  0
LINE
  5
562
  8
DATA
  6
CONTINUOUS
 62
     7
 10
223.2544851950216
 20
22.75
 30
0.0
 11
223.25447389153749
 21
22.75
 31
0.0
  0
LINE
  5
563
  8
DATA
  6
CONTINUOUS
 62
     7
 10
224.12499999939999
 20
20.79090323613584
 30
0.0
 11
223.2544851950216
 21
22.75
 31
0.0
  0
POLYLINE
  5
564
  8
DATA
  6
CONTINUOUS
 62
     7
 66
     1
 10
0.0
 20
0.0
 30
0.0
 70
   128
  0
VERTEX
  5
820
  8
DATA
  6
CONTINUOUS
 62
     7
 10
205.051546489006
 20
19.346354675292961
 30
0.0
  0
VERTEX
  5
821
  8
DATA
  6
CONTINUOUS
 62
     7
 10
205.35252436533901
 20
19.38256260566412
 30
0.0
  0
VERTEX
  5
822
  8
DATA
  6
CONTINUOUS
 62
     7
 10
205.65297662392439
 20
19.41930939406155
 30
0.0
  0
VERTEX
  5
823
  8
DATA
  6
CONTINUOUS
 62
     7
 10
205.95290326476211
 20
19.456595040485251
 30
0.0
  0
VERTEX
  5
824
  8
DATA
  6
CONTINUOUS
 62
     7
 10
206.25230428785221
 20
19.494419544935209
 30
0.0
  0
VERTEX
  5
825
  8
DATA
  6
CONTINUOUS
 62
     7
 10
206.5511796931946
 20
19.532782907411441
 30
0.0
  0
VERTEX
  5
826
  8
DATA
  6
CONTINUOUS
 62
     7
 10
206.8495294807893
 20
19.571685127913931
 30
0.0
  0
VERTEX
  5
827
  8
DATA
  6
CONTINUOUS
 62
     7
 10
207.1473536506364
 20
19.611126206442702
 30
0.0
  0
VERTEX
  5
828
  8
DATA
  6
CONTINUOUS
 62
     7
 10
207.44465220273571
 20
19.65110614299773
 30
0.0
  0
VERTEX
  5
829
  8
DATA
  6
CONTINUOUS
 62
     7
 10
207.74142513708739
 20
19.691624937579022
 30
0.0
  0
VERTEX
  5
82A
  8
DATA
  6
CONTINUOUS
 62
     7
 10
208.0376724536915
 20
19.732682590186592
 30
0.0
  0
VERTEX
  5
82B
  8
DATA
  6
CONTINUOUS
 62
     7
 10
208.3333941525479
 20
19.774279100820419
 30
0.0
  0
VERTEX
  5
82C
  8
DATA
  6
CONTINUOUS
 62
     7
 10
208.62859023365661
 20
19.81641446948052
 30
0.0
  0
VERTEX
  5
82D
  8
DATA
  6
CONTINUOUS
 62
     7
 10
208.92326069701761
 20
19.859088696166879
 30
0.0
  0
VERTEX
  5
82E
  8
DATA
  6
CONTINUOUS
 62
     7
 10
209.21740554263101
 20
19.90230178087949
 30
0.0
  0
VERTEX
  5
82F
  8
DATA
  6
CONTINUOUS
 62
     7
 10
209.5110247704967
 20
19.946053723618391
 30
0.0
  0
VERTEX
  5
830
  8
DATA
  6
CONTINUOUS
 62
     7
 10
209.80411838061471
 20
19.990344524383548
 30
0.0
  0
VERTEX
  5
831
  8
DATA
  6
CONTINUOUS
 62
     7
 10
210.096686372985
 20
20.03517418317497
 30
0.0
  0
VERTEX
  5
832
  8
DATA
  6
CONTINUOUS
 62
     7
 10
210.3887287476077
 20
20.080542699992659
 30
0.0
  0
VERTEX
  5
833
  8
DATA
  6
CONTINUOUS
 62
     7
 10
210.6802455044828
 20
20.126450074836612
 30
0.0
  0
VERTEX
  5
834
  8
DATA
  6
CONTINUOUS
 62
     7
 10
210.9712366436101
 20
20.172896307706839
 30
0.0
  0
VERTEX
  5
835
  8
DATA
  6
CONTINUOUS
 62
     7
 10
211.2617021649898
 20
20.21988139860332
 30
0.0
  0
VERTEX
  5
836
  8
DATA
  6
CONTINUOUS
 62
     7
 10
211.55164206862179
 20
20.267405347526079
 30
0.0
  0
VERTEX
  5
837
  8
DATA
  6
CONTINUOUS
 62
     7
 10
211.84105635450621
 20
20.315468154475091
 30
0.0
  0
VERTEX
  5
838
  8
DATA
  6
CONTINUOUS
 62
     7
 10
212.12994502264289
 20
20.364069819450378
 30
0.0
  0
VERTEX
  5
839
  8
DATA
  6
CONTINUOUS
 62
     7
 10
212.41830807303191
 20
20.413210342451929
 30
0.0
  0
VERTEX
  5
83A
  8
DATA
  6
CONTINUOUS
 62
     7
 10
212.70614550567319
 20
20.462889723479751
 30
0.0
  0
VERTEX
  5
83B
  8
DATA
  6
CONTINUOUS
 62
     7
 10
212.9934573205669
 20
20.513107962533841
 30
0.0
  0
VERTEX
  5
83C
  8
DATA
  6
CONTINUOUS
 62
     7
 10
213.2802435177129
 20
20.563865059614191
 30
0.0
  0
VERTEX
  5
83D
  8
DATA
  6
CONTINUOUS
 62
     7
 10
213.56650409711131
 20
20.615161014720801
 30
0.0
  0
VERTEX
  5
83E
  8
DATA
  6
CONTINUOUS
 62
     7
 10
213.85223905876191
 20
20.666995827853679
 30
0.0
  0
VERTEX
  5
83F
  8
DATA
  6
CONTINUOUS
 62
     7
 10
214.1374484026648
 20
20.719369499012831
 30
0.0
  0
VERTEX
  5
840
  8
DATA
  6
CONTINUOUS
 62
     7
 10
214.42213212882029
 20
20.772282028198251
 30
0.0
  0
VERTEX
  5
841
  8
DATA
  6
CONTINUOUS
 62
     7
 10
214.7062902372279
 20
20.825733415409921
 30
0.0
  0
VERTEX
  5
842
  8
DATA
  6
CONTINUOUS
 62
     7
 10
214.9899227278878
 20
20.879723660647869
 30
0.0
  0
VERTEX
  5
843
  8
DATA
  6
CONTINUOUS
 62
     7
 10
215.27302960080019
 20
20.934252763912092
 30
0.0
  0
VERTEX
  5
844
  8
DATA
  6
CONTINUOUS
 62
     7
 10
215.55561085596489
 20
20.98932072520256
 30
0.0
  0
VERTEX
  5
845
  8
DATA
  6
CONTINUOUS
 62
     7
 10
215.83766649338179
 20
21.044927544519311
 30
0.0
  0
VERTEX
  5
846
  8
DATA
  6
CONTINUOUS
 62
     7
 10
216.11919651305121
 20
21.101073221862318
 30
0.0
  0
VERTEX
  5
847
  8
DATA
  6
CONTINUOUS
 62
     7
 10
216.4002009149728
 20
21.15775775723159
 30
0.0
  0
VERTEX
  5
848
  8
DATA
  6
CONTINUOUS
 62
     7
 10
216.68067969914679
 20
21.214981150627128
 30
0.0
  0
VERTEX
  5
849
  8
DATA
  6
CONTINUOUS
 62
     7
 10
216.9606328655731
 20
21.272743402048949
 30
0.0
  0
VERTEX
  5
84A
  8
DATA
  6
CONTINUOUS
 62
     7
 10
217.2400604142517
 20
21.331044511497019
 30
0.0
  0
VERTEX
  5
84B
  8
DATA
  6
CONTINUOUS
 62
     7
 10
217.5189623451827
 20
21.389884478971371
 30
0.0
  0
VERTEX
  5
84C
  8
DATA
  6
CONTINUOUS
 62
     7
 10
217.79733865836599
 20
21.44926330447197
 30
0.0
  0
VERTEX
  5
84D
  8
DATA
  6
CONTINUOUS
 62
     7
 10
218.07518935380159
 20
21.50918098799885
 30
0.0
  0
VERTEX
  5
84E
  8
DATA
  6
CONTINUOUS
 62
     7
 10
218.3525144314896
 20
21.569637529551979
 30
0.0
  0
VERTEX
  5
84F
  8
DATA
  6
CONTINUOUS
 62
     7
 10
218.62931389142989
 20
21.630632929131401
 30
0.0
  0
VERTEX
  5
850
  8
DATA
  6
CONTINUOUS
 62
     7
 10
218.9055877336225
 20
21.69216718673707
 30
0.0
  0
VERTEX
  5
851
  8
DATA
  6
CONTINUOUS
 62
     7
 10
219.18133595806751
 20
21.754240302368999
 30
0.0
  0
VERTEX
  5
852
  8
DATA
  6
CONTINUOUS
 62
     7
 10
219.4565585647648
 20
21.816852276027198
 30
0.0
  0
VERTEX
  5
853
  8
DATA
  6
CONTINUOUS
 62
     7
 10
219.73125555371439
 20
21.88000310771168
 30
0.0
  0
VERTEX
  5
854
  8
DATA
  6
CONTINUOUS
 62
     7
 10
220.00542692491629
 20
21.943692797422411
 30
0.0
  0
VERTEX
  5
855
  8
DATA
  6
CONTINUOUS
 62
     7
 10
220.2790726783706
 20
22.007921345159421
 30
0.0
  0
VERTEX
  5
856
  8
DATA
  6
CONTINUOUS
 62
     7
 10
220.5521928140773
 20
22.07268875092268
 30
0.0
  0
VERTEX
  5
857
  8
DATA
  6
CONTINUOUS
 62
     7
 10
220.82478733203621
 20
22.13799501471221
 30
0.0
  0
VERTEX
  5
858
  8
DATA
  6
CONTINUOUS
 62
     7
 10
221.09685623224749
 20
22.203840136528012
 30
0.0
  0
VERTEX
  5
859
  8
DATA
  6
CONTINUOUS
 62
     7
 10
221.36839951471109
 20
22.270224116370091
 30
0.0
  0
VERTEX
  5
85A
  8
DATA
  6
CONTINUOUS
 62
     7
 10
221.639417179427
 20
22.33714695423842
 30
0.0
  0
VERTEX
  5
85B
  8
DATA
  6
CONTINUOUS
 62
     7
 10
221.9099092263952
 20
22.40460865013301
 30
0.0
  0
VERTEX
  5
85C
  8
DATA
  6
CONTINUOUS
 62
     7
 10
222.17987565561589
 20
22.472609204053882
 30
0.0
  0
VERTEX
  5
85D
  8
DATA
  6
CONTINUOUS
 62
     7
 10
222.44931646708881
 20
22.54114861600101
 30
0.0
  0
VERTEX
  5
85E
  8
DATA
  6
CONTINUOUS
 62
     7
 10
222.7182316608141
 20
22.610226885974409
 30
0.0
  0
VERTEX
  5
85F
  8
DATA
  6
CONTINUOUS
 62
     7
 10
222.98662123679171
 20
22.67984401397408
 30
0.0
  0
VERTEX
  5
860
  8
DATA
  6
CONTINUOUS
 62
     7
 10
223.2544851950216
 20
22.75
 30
0.0
  0
VERTEX
  5
861
  8
DATA
  6
CONTINUOUS
 62
     7
 10
223.2544851950216
 20
22.75
 30
0.0
  0
SEQEND
  5
862
  8
DATA
  6
CONTINUOUS
 62
     7
  0
ARC
  5
5A8
  8
DATA
  6
CONTINUOUS
 62
     7
 10
203.09005277411509
 20
39.250000000000021
 30
0.0
 40
20.000000000000011
 50
269.99999999999949
 51
276.49580184541719
  0
LINE
  5
5A9
  8
DATA
  6
CONTINUOUS
 62
     7
 10
224.12499999939999
 20
10.70909676386418
 30
0.0
 11
223.2544851950216
 21
8.75
 31
0.0
  0
POLYLINE
  5
5AA
  8
DATA
  6
CONTINUOUS
 62
     7
 66
     1
 10
0.0
 20
0.0
 30
0.0
 70
   128
  0
VERTEX
  5
863
  8
DATA
  6
CONTINUOUS
 62
     7
 10
205.051546489006
 20
12.153645324707041
 30
0.0
  0
VERTEX
  5
864
  8
DATA
  6
CONTINUOUS
 62
     7
 10
205.35252436533901
 20
12.11743739433588
 30
0.0
  0
VERTEX
  5
865
  8
DATA
  6
CONTINUOUS
 62
     7
 10
205.65297662392439
 20
12.08069060593844
 30
0.0
  0
VERTEX
  5
866
  8
DATA
  6
CONTINUOUS
 62
     7
 10
205.95290326476211
 20
12.04340495951474
 30
0.0
  0
VERTEX
  5
867
  8
DATA
  6
CONTINUOUS
 62
     7
 10
206.25230428785221
 20
12.00558045506479
 30
0.0
  0
VERTEX
  5
868
  8
DATA
  6
CONTINUOUS
 62
     7
 10
206.5511796931946
 20
11.96721709258855
 30
0.0
  0
VERTEX
  5
869
  8
DATA
  6
CONTINUOUS
 62
     7
 10
206.8495294807893
 20
11.928314872086069
 30
0.0
  0
VERTEX
  5
86A
  8
DATA
  6
CONTINUOUS
 62
     7
 10
207.1473536506364
 20
11.888873793557311
 30
0.0
  0
VERTEX
  5
86B
  8
DATA
  6
CONTINUOUS
 62
     7
 10
207.44465220273571
 20
11.848893857002279
 30
0.0
  0
VERTEX
  5
86C
  8
DATA
  6
CONTINUOUS
 62
     7
 10
207.74142513708739
 20
11.808375062420961
 30
0.0
  0
VERTEX
  5
86D
  8
DATA
  6
CONTINUOUS
 62
     7
 10
208.0376724536915
 20
11.76731740981341
 30
0.0
  0
VERTEX
  5
86E
  8
DATA
  6
CONTINUOUS
 62
     7
 10
208.3333941525479
 20
11.72572089917958
 30
0.0
  0
VERTEX
  5
86F
  8
DATA
  6
CONTINUOUS
 62
     7
 10
208.62859023365661
 20
11.68358553051948
 30
0.0
  0
VERTEX
  5
870
  8
DATA
  6
CONTINUOUS
 62
     7
 10
208.92326069701761
 20
11.64091130383312
 30
0.0
  0
VERTEX
  5
871
  8
DATA
  6
CONTINUOUS
 62
     7
 10
209.21740554263101
 20
11.597698219120501
 30
0.0
  0
VERTEX
  5
872
  8
DATA
  6
CONTINUOUS
 62
     7
 10
209.5110247704967
 20
11.55394627638163
 30
0.0
  0
VERTEX
  5
873
  8
DATA
  6
CONTINUOUS
 62
     7
 10
209.80411838061471
 20
11.50965547561645
 30
0.0
  0
VERTEX
  5
874
  8
DATA
  6
CONTINUOUS
 62
     7
 10
210.096686372985
 20
11.46482581682503
 30
0.0
  0
VERTEX
  5
875
  8
DATA
  6
CONTINUOUS
 62
     7
 10
210.3887287476077
 20
11.419457300007361
 30
0.0
  0
VERTEX
  5
876
  8
DATA
  6
CONTINUOUS
 62
     7
 10
210.6802455044828
 20
11.373549925163379
 30
0.0
  0
VERTEX
  5
877
  8
DATA
  6
CONTINUOUS
 62
     7
 10
210.9712366436101
 20
11.32710369229317
 30
0.0
  0
VERTEX
  5
878
  8
DATA
  6
CONTINUOUS
 62
     7
 10
211.2617021649898
 20
11.28011860139668
 30
0.0
  0
VERTEX
  5
879
  8
DATA
  6
CONTINUOUS
 62
     7
 10
211.55164206862179
 20
11.232594652473949
 30
0.0
  0
VERTEX
  5
87A
  8
DATA
  6
CONTINUOUS
 62
     7
 10
211.84105635450621
 20
11.1845318455249
 30
0.0
  0
VERTEX
  5
87B
  8
DATA
  6
CONTINUOUS
 62
     7
 10
212.12994502264289
 20
11.13593018054962
 30
0.0
  0
VERTEX
  5
87C
  8
DATA
  6
CONTINUOUS
 62
     7
 10
212.41830807303191
 20
11.08678965754808
 30
0.0
  0
VERTEX
  5
87D
  8
DATA
  6
CONTINUOUS
 62
     7
 10
212.70614550567319
 20
11.03711027652025
 30
0.0
  0
VERTEX
  5
87E
  8
DATA
  6
CONTINUOUS
 62
     7
 10
212.9934573205669
 20
10.986892037466159
 30
0.0
  0
VERTEX
  5
87F
  8
DATA
  6
CONTINUOUS
 62
     7
 10
213.2802435177129
 20
10.936134940385809
 30
0.0
  0
VERTEX
  5
880
  8
DATA
  6
CONTINUOUS
 62
     7
 10
213.56650409711131
 20
10.884838985279201
 30
0.0
  0
VERTEX
  5
881
  8
DATA
  6
CONTINUOUS
 62
     7
 10
213.85223905876191
 20
10.83300417214633
 30
0.0
  0
VERTEX
  5
882
  8
DATA
  6
CONTINUOUS
 62
     7
 10
214.1374484026648
 20
10.78063050098717
 30
0.0
  0
VERTEX
  5
883
  8
DATA
  6
CONTINUOUS
 62
     7
 10
214.42213212882029
 20
10.72771797180175
 30
0.0
  0
VERTEX
  5
884
  8
DATA
  6
CONTINUOUS
 62
     7
 10
214.7062902372279
 20
10.67426658459007
 30
0.0
  0
VERTEX
  5
885
  8
DATA
  6
CONTINUOUS
 62
     7
 10
214.9899227278878
 20
10.620276339352129
 30
0.0
  0
VERTEX
  5
886
  8
DATA
  6
CONTINUOUS
 62
     7
 10
215.27302960080019
 20
10.56574723608793
 30
0.0
  0
VERTEX
  5
887
  8
DATA
  6
CONTINUOUS
 62
     7
 10
215.55561085596489
 20
10.51067927479744
 30
0.0
  0
VERTEX
  5
888
  8
DATA
  6
CONTINUOUS
 62
     7
 10
215.83766649338179
 20
10.45507245548068
 30
0.0
  0
VERTEX
  5
889
  8
DATA
  6
CONTINUOUS
 62
     7
 10
216.11919651305121
 20
10.3989267781377
 30
0.0
  0
VERTEX
  5
88A
  8
DATA
  6
CONTINUOUS
 62
     7
 10
216.4002009149728
 20
10.34224224276841
 30
0.0
  0
VERTEX
  5
88B
  8
DATA
  6
CONTINUOUS
 62
     7
 10
216.68067969914679
 20
10.28501884937288
 30
0.0
  0
VERTEX
  5
88C
  8
DATA
  6
CONTINUOUS
 62
     7
 10
216.9606328655731
 20
10.227256597951049
 30
0.0
  0
VERTEX
  5
88D
  8
DATA
  6
CONTINUOUS
 62
     7
 10
217.2400604142517
 20
10.168955488503
 30
0.0
  0
VERTEX
  5
88E
  8
DATA
  6
CONTINUOUS
 62
     7
 10
217.5189623451827
 20
10.11011552102863
 30
0.0
  0
VERTEX
  5
88F
  8
DATA
  6
CONTINUOUS
 62
     7
 10
217.79733865836599
 20
10.05073669552803
 30
0.0
  0
VERTEX
  5
890
  8
DATA
  6
CONTINUOUS
 62
     7
 10
218.07518935380159
 20
9.9908190120011682
 30
0.0
  0
VERTEX
  5
891
  8
DATA
  6
CONTINUOUS
 62
     7
 10
218.3525144314896
 20
9.9303624704480153
 30
0.0
  0
VERTEX
  5
892
  8
DATA
  6
CONTINUOUS
 62
     7
 10
218.62931389142989
 20
9.8693670708686057
 30
0.0
  0
VERTEX
  5
893
  8
DATA
  6
CONTINUOUS
 62
     7
 10
218.9055877336225
 20
9.8078328132629302
 30
0.0
  0
VERTEX
  5
894
  8
DATA
  6
CONTINUOUS
 62
     7
 10
219.18133595806751
 20
9.7457596976309997
 30
0.0
  0
VERTEX
  5
895
  8
DATA
  6
CONTINUOUS
 62
     7
 10
219.4565585647648
 20
9.6831477239728088
 30
0.0
  0
VERTEX
  5
896
  8
DATA
  6
CONTINUOUS
 62
     7
 10
219.73125555371439
 20
9.6199968922883272
 30
0.0
  0
VERTEX
  5
897
  8
DATA
  6
CONTINUOUS
 62
     7
 10
220.00542692491629
 20
9.5563072025775835
 30
0.0
  0
VERTEX
  5
898
  8
DATA
  6
CONTINUOUS
 62
     7
 10
220.2790726783706
 20
9.4920786548405847
 30
0.0
  0
VERTEX
  5
899
  8
DATA
  6
CONTINUOUS
 62
     7
 10
220.5521928140773
 20
9.4273112490773201
 30
0.0
  0
VERTEX
  5
89A
  8
DATA
  6
CONTINUOUS
 62
     7
 10
220.82478733203621
 20
9.3620049852877951
 30
0.0
  0
VERTEX
  5
89B
  8
DATA
  6
CONTINUOUS
 62
     7
 10
221.09685623224749
 20
9.2961598634719849
 30
0.0
  0
VERTEX
  5
89C
  8
DATA
  6
CONTINUOUS
 62
     7
 10
221.36839951471109
 20
9.2297758836299124
 30
0.0
  0
VERTEX
  5
89D
  8
DATA
  6
CONTINUOUS
 62
     7
 10
221.639417179427
 20
9.1628530457616062
 30
0.0
  0
VERTEX
  5
89E
  8
DATA
  6
CONTINUOUS
 62
     7
 10
221.9099092263952
 20
9.0953913498669863
 30
0.0
  0
VERTEX
  5
89F
  8
DATA
  6
CONTINUOUS
 62
     7
 10
222.17987565561589
 20
9.0273907959461308
 30
0.0
  0
VERTEX
  5
8A0
  8
DATA
  6
CONTINUOUS
 62
     7
 10
222.44931646708881
 20
8.9588513839989901
 30
0.0
  0
VERTEX
  5
8A1
  8
DATA
  6
CONTINUOUS
 62
     7
 10
222.7182316608141
 20
8.8897731140256138
 30
0.0
  0
VERTEX
  5
8A2
  8
DATA
  6
CONTINUOUS
 62
     7
 10
222.98662123679171
 20
8.8201559860259238
 30
0.0
  0
VERTEX
  5
8A3
  8
DATA
  6
CONTINUOUS
 62
     7
 10
223.2544851950216
 20
8.75
 30
0.0
  0
VERTEX
  5
8A4
  8
DATA
  6
CONTINUOUS
 62
     7
 10
223.2544851950216
 20
8.75
 30
0.0
  0
SEQEND
  5
8A5
  8
DATA
  6
CONTINUOUS
 62
     7
  0
ARC
  5
5EE
  8
DATA
  6
CONTINUOUS
 62
     7
 10
203.09005277411509
 20
-7.75
 30
0.0
 40
19.999999999999979
 50
83.504198154582838
 51
90.000000000000483
  0
ARC
  5
5EF
  8
DATA
  6
CONTINUOUS
 62
     7
 10
219.71473429423369
 20
15.749999999999879
 30
0.0
 40
1.9999999999999361
 50
196.55884858649139
 51
163.44115141350099
  0
ARC
  5
5F0
  8
DATA
  6
CONTINUOUS
 62
     7
 10
215.93412340545461
 20
19.758398098351108
 30
0.0
 40
3.9109361935368181
 50
272.06430900741401
 51
298.45697255836819
  0
ARC
  5
5F1
  8
DATA
  6
CONTINUOUS
 62
     7
 10
215.93412340545461
 20
11.74160190164889
 30
0.0
 40
3.910936193536799
 50
61.543027441631899
 51
87.935690992585947
  0
LINE
  5
5F2
  8
DATA
  6
CONTINUOUS
 62
     7
 10
216.07499999940001
 20
15.849999999999991
 30
0.0
 11
194.22499999954479
 21
15.849999999999991
 31
0.0
  0
LINE
  5
5F3
  8
DATA
  6
CONTINUOUS
 62
     7
 10
216.07499999940001
 20
15.65
 30
0.0
 11
194.22499999954479
 21
15.65
 31
0.0
  0
LINE
  5
5F4
  8
DATA
  6
CONTINUOUS
 62
     7
 10
214.6818811554418
 20
-17.791289116413189
 30
0.0
 11
211.18188115544191
 21
-17.791289116413189
 31
0.0
  0
ARC
  5
5F5
  8
DATA
  6
CONTINUOUS
 62
     7
 10
260.6973133000451
 20
-16.80323887029629
 30
0.0
 40
49.525289133488677
 50
147.40375355909771
 51
181.14315062258919
  0
ARC
  5
5F6
  8
DATA
  6
CONTINUOUS
 62
     7
 10
264.19731330004498
 20
-16.80323887029629
 30
0.0
 40
49.525289133488712
 50
148.49215468475231
 51
148.49218931111989
  0
ARC
  5
5F7
  8
DATA
  6
CONTINUOUS
 62
     7
 10
264.19731330004498
 20
-16.80323887029629
 30
0.0
 40
49.525289133488677
 50
173.2707765521663
 51
181.14315062258919
  0
LINE
  5
5F8
  8
DATA
  6
CONTINUOUS
 62
     7
 10
232.68188115544191
 20
-8.75
 30
0.0
 11
228.9818811554419
 21
-8.75
 31
0.0
  0
LINE
  5
5F9
  8
DATA
  6
CONTINUOUS
 62
     7
 10
228.9818811554419
 20
-8.75
 30
0.0
 11
228.9818811554419
 21
8.75
 31
0.0
  0
LINE
  5
5FA
  8
DATA
  6
CONTINUOUS
 62
     7
 10
219.5132032402916
 20
-11.0
 30
0.0
 11
215.0132032402916
 21
-11.0
 31
0.0
  0
LINE
  5
5FB
  8
DATA
  6
CONTINUOUS
 62
     7
 10
228.9818811554419
 20
-1.900000000000005
 30
0.0
 11
221.90625037757479
 21
-1.900000000000005
 31
0.0
  0
LINE
  5
5FC
  8
DATA
  6
CONTINUOUS
 62
     7
 10
228.9818811554419
 20
2.0999999999999939
 30
0.0
 11
223.73325447525039
 21
2.0999999999999939
 31
0.0
  0
ARC
  5
5FD
  8
DATA
  6
CONTINUOUS
 62
     7
 10
259.48463879742059
 20
-16.646724410160171
 30
0.0
 40
40.36831872969222
 50
140.9230362156344
 51
171.95909185957001
  0
LINE
  5
5FE
  8
DATA
  6
CONTINUOUS
 62
     7
 10
-47.995000000292933
 20
287.77500000062048
 30
0.0
 11
-47.495000000292933
 21
287.77500000062048
 31
0.0
  0
LINE
  5
5FF
  8
DATA
  6
CONTINUOUS
 62
     7
 10
-50.295000000292937
 20
287.77500000062048
 30
0.0
 11
-74.495000000292904
 21
287.77500000062048
 31
0.0
  0
LINE
  5
600
  8
DATA
  6
CONTINUOUS
 62
     7
 10
-51.495000000292933
 20
285.3750000006205
 30
0.0
 11
-74.495000000292904
 21
285.3750000006205
 31
0.0
  0
LINE
  5
601
  8
DATA
  6
CONTINUOUS
 62
     7
 10
-72.495000000292904
 20
285.3750000006205
 30
0.0
 11
-72.495000000292904
 21
287.77500000062048
 31
0.0
  0
LINE
  5
602
  8
DATA
  6
CONTINUOUS
 62
     7
 10
-53.495000000292933
 20
285.3750000006205
 30
0.0
 11
-53.495000000292933
 21
287.77500000062048
 31
0.0
  0
LINE
  5
603
  8
DATA
  6
CONTINUOUS
 62
     7
 10
-51.495000000292933
 20
273.67500000062051
 30
0.0
 11
-74.495000000292904
 21
273.67500000062051
 31
0.0
  0
ARC
  5
604
  8
DATA
  6
CONTINUOUS
 62
     7
 10
-62.895000000292939
 20
287.27493765501958
 30
0.0
 40
43.525052531219778
 50
259.11442328949278
 51
280.59496831956102
  0
ARC
  5
605
  8
DATA
  6
CONTINUOUS
 62
     7
 10
53.973015195513383
 20
268.49016182349641
 30
0.0
 40
128.63438360340299
 50
182.91434756175761
 51
190.00149624187401
  0
ARC
  5
606
  8
DATA
  6
CONTINUOUS
 62
     7
 10
-179.96301519609921
 20
268.49016182349641
 30
0.0
 40
128.63438360340299
 50
349.98047046275252
 51
357.08565243824251
  0
ARC
  5
607
  8
DATA
  6
CONTINUOUS
 62
     7
 10
-70.736933282464264
 20
246.49707515440929
 30
0.0
 40
2.0000000000000271
 50
190.00149624187361
 51
259.11442328949209
  0
ARC
  5
608
  8
DATA
  6
CONTINUOUS
 62
     7
 10
-55.259995007423932
 20
246.4578249879111
 30
0.0
 40
1.999999999999996
 50
280.59496831955988
 51
349.98047046275309
  0
LINE
  5
609
  8
DATA
  6
CONTINUOUS
 62
     7
 10
-33.000000000292928
 20
136.25
 30
0.0
 11
-42.000000000292928
 21
136.25
 31
0.0
  0
LINE
  5
60A
  8
DATA
  6
CONTINUOUS
 62
     7
 10
-32.600000000292951
 20
148.25
 30
0.0
 11
-42.400000000292962
 21
148.25
 31
0.0
  0
LINE
  5
60B
  8
DATA
  6
CONTINUOUS
 62
     7
 10
-42.000000000292928
 20
136.25
 30
0.0
 11
-42.400000000292962
 21
148.25
 31
0.0
  0
LINE
  5
60C
  8
DATA
  6
CONTINUOUS
 62
     7
 10
-33.000000000292928
 20
136.25
 30
0.0
 11
-32.600000000292951
 21
148.25
 31
0.0
  0
LINE
  5
60D
  8
DATA
  6
CONTINUOUS
 62
     7
 10
-32.600000000292951
 20
166.25
 30
0.0
 11
-42.400000000292962
 21
166.25
 31
0.0
  0
LINE
  5
60E
  8
DATA
  6
CONTINUOUS
 62
     7
 10
-42.400000000292962
 20
148.25
 30
0.0
 11
-42.400000000292962
 21
178.9262352984951
 31
0.0
  0
LINE
  5
60F
  8
DATA
  6
CONTINUOUS
 62
     7
 10
-32.600000000292951
 20
148.25
 30
0.0
 11
-32.600000000292951
 21
178.9262352984951
 31
0.0
  0
CIRCLE
  5
610
  8
DATA
  6
CONTINUOUS
 62
     7
 10
-37.500000000292928
 20
185.25
 30
0.0
 40
8.0
  0
CIRCLE
  5
611
  8
DATA
  6
CONTINUOUS
 62
     7
 10
-37.500000000292928
 20
185.25
 30
0.0
 40
3.9499999999999882
  0
CIRCLE
  5
612
  8
DATA
  6
CONTINUOUS
 62
     7
 10
-37.500000000292928
 20
185.25
 30
0.0
 40
5.849999999999965
  0
LINE
  5
613
  8
DATA
  6
CONTINUOUS
 62
     7
 10
-39.450000000292917
 20
190.76543289325511
 30
0.0
 11
-39.450000000292917
 21
193.0087047888162
 31
0.0
  0
LINE
  5
614
  8
DATA
  6
CONTINUOUS
 62
     7
 10
-35.55000000029294
 20
190.76543289325511
 30
0.0
 11
-35.55000000029294
 21
193.0087047888162
 31
0.0
  0
LINE
  5
615
  8
DATA
  6
CONTINUOUS
 62
     7
 10
-33.698495001865943
 20
189.69646598400701
 30
0.0
 11
-31.7557645527137
 21
190.81810193178799
 31
0.0
  0
LINE
  5
616
  8
DATA
  6
CONTINUOUS
 62
     7
 10
-31.748495001865219
 20
186.31896690924819
 30
0.0
 11
-29.805764552713431
 21
187.44060285702889
 31
0.0
  0
LINE
  5
617
  8
DATA
  6
CONTINUOUS
 62
     7
 10
-41.301504998720723
 20
189.69646598400749
 30
0.0
 11
-43.244235447871581
 21
190.8181019317876
 31
0.0
  0
LINE
  5
618
  8
DATA
  6
CONTINUOUS
 62
     7
 10
-43.251504998719902
 20
186.31896690924771
 30
0.0
 11
-45.194235447870952
 21
187.44060285702801
 31
0.0
  0
LINE
  5
619
  8
DATA
  6
CONTINUOUS
 62
     7
 10
-43.251504998719902
 20
184.18103309075221
 30
0.0
 11
-45.194235447872202
 21
183.05939714297131
 31
0.0
  0
LINE
  5
61A
  8
DATA
  6
CONTINUOUS
 62
     7
 10
-41.301504998720723
 20
180.80353401599251
 30
0.0
 11
-43.244235447872562
 21
179.68189806821181
 31
0.0
  0
LINE
  5
61B
  8
DATA
  6
CONTINUOUS
 62
     7
 10
-39.450000000292917
 20
177.49129521118371
 30
0.0
 11
-39.450000000292917
 21
179.73456710674489
 31
0.0
  0
LINE
  5
61C
  8
DATA
  6
CONTINUOUS
 62
     7
 10
-35.55000000029294
 20
177.49129521118371
 30
0.0
 11
-35.55000000029294
 21
179.73456710674489
 31
0.0
  0
LINE
  5
61D
  8
DATA
  6
CONTINUOUS
 62
     7
 10
-31.75576455271484
 20
179.68189806821269
 30
0.0
 11
-33.698495001865879
 21
180.80353401599291
 31
0.0
  0
LINE
  5
61E
  8
DATA
  6
CONTINUOUS
 62
     7
 10
-29.80576455271428
 20
183.05939714297159
 30
0.0
 11
-31.748495001865219
 21
184.1810330907517
 31
0.0
  0
LINE
  5
61F
  8
DATA
  6
CONTINUOUS
 62
     7
 10
-40.450000000292917
 20
86.0
 30
0.0
 11
-34.55000000029294
 21
86.950000000000017
 31
0.0
  0
LINE
  5
620
  8
DATA
  6
CONTINUOUS
 62
     7
 10
-40.450000000292917
 20
88.0
 30
0.0
 11
-34.55000000029294
 21
88.950000000000017
 31
0.0
  0
LINE
  5
621
  8
DATA
  6
CONTINUOUS
 62
     7
 10
-40.450000000292917
 20
90.0
 30
0.0
 11
-34.55000000029294
 21
90.950000000000003
 31
0.0
  0
LINE
  5
622
  8
DATA
  6
CONTINUOUS
 62
     7
 10
-40.450000000292917
 20
92.0
 30
0.0
 11
-34.55000000029294
 21
92.949999999999989
 31
0.0
  0
LINE
  5
623
  8
DATA
  6
CONTINUOUS
 62
     7
 10
-40.450000000292917
 20
94.0
 30
0.0
 11
-34.55000000029294
 21
94.950000000000003
 31
0.0
  0
LINE
  5
624
  8
DATA
  6
CONTINUOUS
 62
     7
 10
-40.450000000292917
 20
96.0
 30
0.0
 11
-34.55000000029294
 21
96.950000000000003
 31
0.0
  0
LINE
  5
625
  8
DATA
  6
CONTINUOUS
 62
     7
 10
-40.450000000292917
 20
98.0
 30
0.0
 11
-34.55000000029294
 21
98.950000000000017
 31
0.0
  0
LINE
  5
626
  8
DATA
  6
CONTINUOUS
 62
     7
 10
-40.450000000292917
 20
100.0
 30
0.0
 11
-34.55000000029294
 21
100.95
 31
0.0
  0
LINE
  5
627
  8
DATA
  6
CONTINUOUS
 62
     7
 10
-40.450000000292917
 20
102.0
 30
0.0
 11
-34.55000000029294
 21
102.95
 31
0.0
  0
LINE
  5
628
  8
DATA
  6
CONTINUOUS
 62
     7
 10
-40.450000000292917
 20
104.0
 30
0.0
 11
-34.55000000029294
 21
104.95
 31
0.0
  0
LINE
  5
629
  8
DATA
  6
CONTINUOUS
 62
     7
 10
-40.450000000292917
 20
106.0
 30
0.0
 11
-34.55000000029294
 21
106.95
 31
0.0
  0
LINE
  5
62A
  8
DATA
  6
CONTINUOUS
 62
     7
 10
-40.450000000292917
 20
108.0
 30
0.0
 11
-34.55000000029294
 21
108.95
 31
0.0
  0
LINE
  5
62B
  8
DATA
  6
CONTINUOUS
 62
     7
 10
-40.450000000292917
 20
110.0
 30
0.0
 11
-34.55000000029294
 21
110.95
 31
0.0
  0
LINE
  5
62C
  8
DATA
  6
CONTINUOUS
 62
     7
 10
-40.450000000292917
 20
112.0
 30
0.0
 11
-34.55000000029294
 21
112.95
 31
0.0
  0
LINE
  5
62D
  8
DATA
  6
CONTINUOUS
 62
     7
 10
-40.450000000292917
 20
114.0
 30
0.0
 11
-34.55000000029294
 21
114.95
 31
0.0
  0
LINE
  5
62E
  8
DATA
  6
CONTINUOUS
 62
     7
 10
-40.450000000292917
 20
116.0
 30
0.0
 11
-34.55000000029294
 21
116.95
 31
0.0
  0
LINE
  5
62F
  8
DATA
  6
CONTINUOUS
 62
     7
 10
-40.450000000292917
 20
118.0
 30
0.0
 11
-34.55000000029294
 21
118.95
 31
0.0
  0
LINE
  5
630
  8
DATA
  6
CONTINUOUS
 62
     7
 10
-40.450000000292917
 20
120.0
 30
0.0
 11
-34.55000000029294
 21
120.95
 31
0.0
  0
LINE
  5
631
  8
DATA
  6
CONTINUOUS
 62
     7
 10
-40.450000000292917
 20
122.0
 30
0.0
 11
-34.55000000029294
 21
122.95
 31
0.0
  0
LINE
  5
632
  8
DATA
  6
CONTINUOUS
 62
     7
 10
-40.450000000292917
 20
124.0
 30
0.0
 11
-34.55000000029294
 21
124.95
 31
0.0
  0
LINE
  5
633
  8
DATA
  6
CONTINUOUS
 62
     7
 10
-40.450000000292917
 20
126.0
 30
0.0
 11
-34.55000000029294
 21
126.95
 31
0.0
  0
LINE
  5
634
  8
DATA
  6
CONTINUOUS
 62
     7
 10
-40.450000000292917
 20
128.0
 30
0.0
 11
-34.55000000029294
 21
128.94999999999999
 31
0.0
  0
LINE
  5
635
  8
DATA
  6
CONTINUOUS
 62
     7
 10
-40.450000000292917
 20
130.0
 30
0.0
 11
-34.55000000029294
 21
130.94999999999999
 31
0.0
  0
LINE
  5
636
  8
DATA
  6
CONTINUOUS
 62
     7
 10
-40.450000000292917
 20
132.0
 30
0.0
 11
-34.55000000029294
 21
132.94999999999999
 31
0.0
  0
LINE
  5
637
  8
DATA
  6
CONTINUOUS
 62
     7
 10
-40.450000000292917
 20
134.0
 30
0.0
 11
-34.55000000029294
 21
134.94999999999999
 31
0.0
  0
LINE
  5
638
  8
DATA
  6
STYLE_01
 62
     7
 10
-46.015000000656222
 20
174.5638322802362
 30
0.0
 11
-28.984999999929659
 21
174.5638322802362
 31
0.0
  0
LINE
  5
639
  8
DATA
  6
CONTINUOUS
 62
     7
 10
-40.450000000292917
 20
84.0
 30
0.0
 11
-34.55000000029294
 21
84.950000000000017
 31
0.0
  0
LINE
  5
63A
  8
DATA
  6
CONTINUOUS
 62
     7
 10
-40.450000000292917
 20
82.0
 30
0.0
 11
-34.55000000029294
 21
82.950000000000017
 31
0.0
  0
LINE
  5
63B
  8
DATA
  6
CONTINUOUS
 62
     7
 10
-40.450000000292917
 20
80.0
 30
0.0
 11
-34.55000000029294
 21
80.950000000000017
 31
0.0
  0
LINE
  5
63C
  8
DATA
  6
CONTINUOUS
 62
     7
 10
-40.450000000292917
 20
78.0
 30
0.0
 11
-34.55000000029294
 21
78.950000000000017
 31
0.0
  0
LINE
  5
63D
  8
DATA
  6
CONTINUOUS
 62
     7
 10
-40.450000000292917
 20
76.0
 30
0.0
 11
-34.55000000029294
 21
76.950000000000017
 31
0.0
  0
LINE
  5
63E
  8
DATA
  6
CONTINUOUS
 62
     7
 10
-40.450000000292917
 20
74.0
 30
0.0
 11
-34.55000000029294
 21
74.950000000000017
 31
0.0
  0
LINE
  5
63F
  8
DATA
  6
CONTINUOUS
 62
     7
 10
-40.450000000292917
 20
72.0
 30
0.0
 11
-34.55000000029294
 21
72.950000000000017
 31
0.0
  0
LINE
  5
640
  8
DATA
  6
CONTINUOUS
 62
     7
 10
-40.450000000292917
 20
70.0
 30
0.0
 11
-34.55000000029294
 21
70.950000000000017
 31
0.0
  0
LINE
  5
641
  8
DATA
  6
CONTINUOUS
 62
     7
 10
-40.450000000292917
 20
68.0
 30
0.0
 11
-34.55000000029294
 21
68.950000000000017
 31
0.0
  0
LINE
  5
642
  8
DATA
  6
CONTINUOUS
 62
     7
 10
-40.450000000292917
 20
66.0
 30
0.0
 11
-34.55000000029294
 21
66.950000000000017
 31
0.0
  0
LINE
  5
643
  8
DATA
  6
CONTINUOUS
 62
     7
 10
-40.450000000292917
 20
64.0
 30
0.0
 11
-34.55000000029294
 21
64.950000000000017
 31
0.0
  0
LINE
  5
644
  8
DATA
  6
CONTINUOUS
 62
     7
 10
-34.76218874727774
 20
182.4027399938075
 30
0.0
 11
-34.76218874727774
 21
188.0972600061925
 31
0.0
  0
LINE
  5
645
  8
DATA
  6
CONTINUOUS
 62
     7
 10
-33.962188747277771
 20
183.49318710784601
 30
0.0
 11
-33.962188747277771
 21
187.0068128921541
 31
0.0
  0
LINE
  5
646
  8
DATA
  6
CONTINUOUS
 62
     7
 10
-40.395892987903267
 20
182.56368211034081
 30
0.0
 11
-34.604107012682583
 21
182.56368211034081
 31
0.0
  0
LINE
  5
647
  8
DATA
  6
CONTINUOUS
 62
     7
 10
-40.970490573561172
 20
183.3636821103409
 30
0.0
 11
-34.029509427024742
 21
183.3636821103409
 31
0.0
  0
LINE
  5
648
  8
DATA
  6
CONTINUOUS
 62
     7
 10
-41.297685274588389
 20
184.16368211034089
 30
0.0
 11
-33.702314725997446
 21
184.16368211034089
 31
0.0
  0
LINE
  5
649
  8
DATA
  6
CONTINUOUS
 62
     7
 10
-41.225149569499941
 20
186.56368211034089
 30
0.0
 11
-33.774850431085909
 21
186.56368211034089
 31
0.0
  0
LINE
  5
64A
  8
DATA
  6
CONTINUOUS
 62
     7
 10
-40.836891957851392
 20
187.3636821103409
 30
0.0
 11
-34.163108042734521
 21
187.3636821103409
 31
0.0
  0
LINE
  5
64B
  8
DATA
  6
CONTINUOUS
 62
     7
 10
-40.167012666155891
 20
188.16368211034089
 30
0.0
 11
-34.832987334429973
 21
188.16368211034089
 31
0.0
  0
LINE
  5
64C
  8
DATA
  6
CONTINUOUS
 62
     7
 10
-40.362188747277749
 20
182.52779949734889
 30
0.0
 11
-40.362188747277749
 21
187.97220050265111
 31
0.0
  0
LINE
  5
64D
  8
DATA
  6
CONTINUOUS
 62
     7
 10
-39.562188747277737
 20
181.88104206440491
 30
0.0
 11
-39.562188747277737
 21
188.61895793559501
 31
0.0
  0
LINE
  5
64E
  8
DATA
  6
CONTINUOUS
 62
     7
 10
-38.762188747277719
 20
181.5070894257297
 30
0.0
 11
-38.762188747277719
 21
188.9929105742703
 31
0.0
  0
LINE
  5
64F
  8
DATA
  6
CONTINUOUS
 62
     7
 10
-37.962188747277771
 20
181.32713350186879
 30
0.0
 11
-37.962188747277771
 21
189.17286649813121
 31
0.0
  0
LINE
  5
650
  8
DATA
  6
CONTINUOUS
 62
     7
 10
-37.162188747277781
 20
181.31447162920449
 30
0.0
 11
-37.162188747277781
 21
189.18552837079551
 31
0.0
  0
LINE
  5
651
  8
DATA
  6
CONTINUOUS
 62
     7
 10
-36.362188747277763
 20
181.46742342410471
 30
0.0
 11
-36.362188747277763
 21
189.03257657589521
 31
0.0
  0
LINE
  5
652
  8
DATA
  6
CONTINUOUS
 62
     7
 10
-35.562188747277737
 20
181.8079965793614
 30
0.0
 11
-35.562188747277737
 21
188.69200342063851
 31
0.0
  0
LINE
  5
653
  8
DATA
  6
CONTINUOUS
 62
     7
 10
-39.356902682782803
 20
181.76368211034091
 30
0.0
 11
-35.643097317803111
 21
181.76368211034091
 31
0.0
  0
LINE
  5
654
  8
DATA
  6
CONTINUOUS
 62
     7
 10
-41.439609380175
 20
184.9636821103409
 30
0.0
 11
-33.560390620410899
 21
184.9636821103409
 31
0.0
  0
LINE
  5
655
  8
DATA
  6
CONTINUOUS
 62
     7
 10
-41.416456394727689
 20
185.76368211034091
 30
0.0
 11
-33.583543605858232
 21
185.76368211034091
 31
0.0
  0
LINE
  5
656
  8
DATA
  6
CONTINUOUS
 62
     7
 10
-38.845758219040043
 20
188.9636821103409
 30
0.0
 11
-36.154241781545892
 21
188.9636821103409
 31
0.0
  0
LINE
  5
657
  8
DATA
  6
CONTINUOUS
 62
     7
 10
-41.162188747277767
 20
183.7698400149113
 30
0.0
 11
-41.162188747277767
 21
186.7301599850887
 31
0.0
  0
ENDSEC
  0
EOF
